  0
SECTION
  2
HEADER
  9
$ACADVER
  1
AC1014
  9
$ACADMAINTVER
 70
     9
  9
$DWGCODEPAGE
  3
ANSI_1252
  9
$INSBASE
 10
0.0
 20
0.0
 30
0.0
  9
$EXTMIN
 10
479.30314
 20
152.041051
 30
-0.222949
  9
$EXTMAX
 10
871.444712
 20
293.439656
 30
0.0
  9
$LIMMIN
 10
0.0
 20
0.0
  9
$LIMMAX
 10
1189.0
 20
841.0
  9
$ORTHOMODE
 70
     1
  9
$REGENMODE
 70
     1
  9
$FILLMODE
 70
     1
  9
$QTEXTMODE
 70
     0
  9
$MIRRTEXT
 70
     0
  9
$DRAGMODE
 70
     2
  9
$LTSCALE
 40
8.0
  9
$OSMODE
 70
     0
  9
$ATTMODE
 70
     1
  9
$TEXTSIZE
 40
2.0
  9
$TRACEWID
 40
10.0
  9
$TEXTSTYLE
  7
STANDARD
  9
$CLAYER
  8
TEXT
  9
$CELTYPE
  6
BYLAYER
  9
$CECOLOR
 62
   256
  9
$CELTSCALE
 40
1.0
  9
$DELOBJ
 70
     1
  9
$DISPSILH
 70
     0
  9
$DIMSCALE
 40
1.0
  9
$DIMASZ
 40
3.0
  9
$DIMEXO
 40
1.0
  9
$DIMDLI
 40
10.0
  9
$DIMRND
 40
0.01
  9
$DIMDLE
 40
1.25
  9
$DIMEXE
 40
2.5
  9
$DIMTP
 40
0.05
  9
$DIMTM
 40
0.0
  9
$DIMTXT
 40
3.0
  9
$DIMCEN
 40
-1.7
  9
$DIMTSZ
 40
0.0
  9
$DIMTOL
 70
     0
  9
$DIMLIM
 70
     0
  9
$DIMTIH
 70
     0
  9
$DIMTOH
 70
     0
  9
$DIMSE1
 70
     0
  9
$DIMSE2
 70
     0
  9
$DIMTAD
 70
     3
  9
$DIMZIN
 70
     1
  9
$DIMBLK
  1

  9
$DIMASO
 70
     1
  9
$DIMSHO
 70
     0
  9
$DIMPOST
  1

  9
$DIMAPOST
  1

  9
$DIMALT
 70
     0
  9
$DIMALTD
 70
     2
  9
$DIMALTF
 40
0.039
  9
$DIMLFAC
 40
1.0
  9
$DIMTOFL
 70
     0
  9
$DIMTVP
 40
1.5
  9
$DIMTIX
 70
     0
  9
$DIMSOXD
 70
     0
  9
$DIMSAH
 70
     0
  9
$DIMBLK1
  1

  9
$DIMBLK2
  1

  9
$DIMSTYLE
  2
DIM1
  9
$DIMCLRD
 70
     4
  9
$DIMCLRE
 70
     4
  9
$DIMCLRT
 70
     2
  9
$DIMTFAC
 40
0.7
  9
$DIMGAP
 40
1.5
  9
$DIMJUST
 70
     0
  9
$DIMSD1
 70
     0
  9
$DIMSD2
 70
     0
  9
$DIMTOLJ
 70
     1
  9
$DIMTZIN
 70
     1
  9
$DIMALTZ
 70
     1
  9
$DIMALTTZ
 70
     1
  9
$DIMFIT
 70
     0
  9
$DIMUPT
 70
     0
  9
$DIMUNIT
 70
     2
  9
$DIMDEC
 70
     2
  9
$DIMTDEC
 70
     2
  9
$DIMALTU
 70
     2
  9
$DIMALTTD
 70
     2
  9
$DIMTXSTY
  7
STANDARD
  9
$DIMAUNIT
 70
     0
  9
$LUNITS
 70
     2
  9
$LUPREC
 70
     2
  9
$SKETCHINC
 40
1.0
  9
$FILLETRAD
 40
0.0
  9
$AUNITS
 70
     0
  9
$AUPREC
 70
     3
  9
$MENU
  1
ACAD
  9
$ELEVATION
 40
0.0
  9
$PELEVATION
 40
0.0
  9
$THICKNESS
 40
0.0
  9
$LIMCHECK
 70
     0
  9
$BLIPMODE
 70
     1
  9
$CHAMFERA
 40
2.0
  9
$CHAMFERB
 40
2.0
  9
$CHAMFERC
 40
0.0
  9
$CHAMFERD
 40
0.0
  9
$SKPOLY
 70
     1
  9
$TDCREATE
 40
2449993.725698611
  9
$TDUPDATE
 40
2452115.532593425
  9
$TDINDWG
 40
1.1677366551
  9
$TDUSRTIMER
 40
1.1677366551
  9
$USRTIMER
 70
     1
  9
$ANGBASE
 50
0.0
  9
$ANGDIR
 70
     0
  9
$PDMODE
 70
     3
  9
$PDSIZE
 40
0.0
  9
$PLINEWID
 40
0.0
  9
$COORDS
 70
     2
  9
$SPLFRAME
 70
     0
  9
$SPLINETYPE
 70
     6
  9
$SPLINESEGS
 70
     6
  9
$ATTDIA
 70
     1
  9
$ATTREQ
 70
     1
  9
$HANDLING
 70
     1
  9
$HANDSEED
  5
66
  9
$SURFTAB1
 70
    12
  9
$SURFTAB2
 70
    12
  9
$SURFTYPE
 70
     6
  9
$SURFU
 70
    12
  9
$SURFV
 70
    12
  9
$UCSNAME
  2

  9
$UCSORG
 10
0.0
 20
0.0
 30
0.0
  9
$UCSXDIR
 10
1.0
 20
0.0
 30
0.0
  9
$UCSYDIR
 10
0.0
 20
1.0
 30
0.0
  9
$PUCSNAME
  2

  9
$PUCSORG
 10
0.0
 20
0.0
 30
0.0
  9
$PUCSXDIR
 10
1.0
 20
0.0
 30
0.0
  9
$PUCSYDIR
 10
0.0
 20
1.0
 30
0.0
  9
$USERI1
 70
     0
  9
$USERI2
 70
     0
  9
$USERI3
 70
     0
  9
$USERI4
 70
     0
  9
$USERI5
 70
     0
  9
$USERR1
 40
0.0
  9
$USERR2
 40
0.0
  9
$USERR3
 40
0.0
  9
$USERR4
 40
0.0
  9
$USERR5
 40
0.0
  9
$WORLDVIEW
 70
     0
  9
$SHADEDGE
 70
     3
  9
$SHADEDIF
 70
    70
  9
$TILEMODE
 70
     1
  9
$MAXACTVP
 70
    16
  9
$PINSBASE
 10
0.0
 20
0.0
 30
0.0
  9
$PLIMCHECK
 70
     0
  9
$PEXTMIN
 10
1.000000E+20
 20
1.000000E+20
 30
1.000000E+20
  9
$PEXTMAX
 10
-1.000000E+20
 20
-1.000000E+20
 30
-1.000000E+20
  9
$PLIMMIN
 10
0.0
 20
0.0
  9
$PLIMMAX
 10
12.0
 20
9.0
  9
$UNITMODE
 70
     0
  9
$VISRETAIN
 70
     0
  9
$PLINEGEN
 70
     0
  9
$PSLTSCALE
 70
     0
  9
$TREEDEPTH
 70
  3020
  9
$PICKSTYLE
 70
     1
  9
$CMLSTYLE
  2
STANDARD
  9
$CMLJUST
 70
     0
  9
$CMLSCALE
 40
1.0
  9
$PROXYGRAPHICS
 70
     1
  9
$MEASUREMENT
 70
     0
  0
ENDSEC
  0
SECTION
  2
CLASSES
  0
CLASS
  1
DICTIONARYVAR
  2
AcDbDictionaryVar
  3
"AutoCAD"
 90
        0
280
     0
281
     0
  0
CLASS
  1
LWPOLYLINE
  2
AcDbPolyline
  3
"AutoCAD"
 90
        0
280
     0
281
     1
  0
CLASS
  1
HATCH
  2
AcDbHatch
  3
"ACAD_SEDONA"
 90
        0
280
     0
281
     1
  0
CLASS
  1
SORTENTSTABLE
  2
AcDbSortentsTable
  3
"AutoCAD"
 90
        0
280
     0
281
     0
  0
CLASS
  1
WIPEOUTVARIABLES
  2
AcDbWipeoutVariables
  3
WIPEOUT
 90
        0
280
     0
281
     0
  0
CLASS
  1
WIPEOUT
  2
AcDbWipeout
  3
WIPEOUT
 90
      127
280
     0
281
     1
  0
ENDSEC
  0
SECTION
  2
TABLES
  0
TABLE
  2
VPORT
  5
14
100
AcDbSymbolTable
 70
     2
  0
VPORT
  5
65
100
AcDbSymbolTableRecord
100
AcDbViewportTableRecord
  2
*ACTIVE
 70
     0
 10
0.0
 20
0.0
 11
1.0
 21
1.0
 12
507.066389
 22
252.419658
 13
0.0
 23
0.0
 14
10.0
 24
10.0
 15
0.0
 25
0.0
 16
0.0
 26
0.0
 36
1.0
 17
16.313321
 27
12.779115
 37
0.222949
 40
193.050919
 41
1.470516
 42
50.0
 43
0.0
 44
0.0
 50
0.0
 51
0.0
 71
     0
 72
  2000
 73
     1
 74
     2
 75
     0
 76
     0
 77
     0
 78
     1
  0
ENDTAB
  0
TABLE
  2
LTYPE
  5
F
100
AcDbSymbolTable
 70
     2
  0
LTYPE
  5
10
100
AcDbSymbolTableRecord
100
AcDbLinetypeTableRecord
  2
BYBLOCK
 70
     0
  3

 72
    65
 73
     0
 40
0.0
  0
LTYPE
  5
11
100
AcDbSymbolTableRecord
100
AcDbLinetypeTableRecord
  2
BYLAYER
 70
     0
  3

 72
    65
 73
     0
 40
0.0
  0
LTYPE
  5
7
100
AcDbSymbolTableRecord
100
AcDbLinetypeTableRecord
  2
CONTINUOUS
 70
     0
  3
Solid line
 72
    65
 73
     0
 40
0.0
  0
LTYPE
  5
64
100
AcDbSymbolTableRecord
100
AcDbLinetypeTableRecord
  2
CENTER
 70
     0
  3
Center ____ _ ____ _ ____ _ ____ _ ____ _ ____
 72
    65
 73
     4
 40
2.0
 49
1.25
 74
     0
 49
-0.25
 74
     0
 49
0.25
 74
     0
 49
-0.25
 74
     0
  0
ENDTAB
  0
TABLE
  2
LAYER
  5
C
100
AcDbSymbolTable
 70
     5
  0
LAYER
  5
6
100
AcDbSymbolTableRecord
100
AcDbLayerTableRecord
  2
0
 70
     0
 62
     7
  6
CONTINUOUS
  0
LAYER
  5
63
100
AcDbSymbolTableRecord
100
AcDbLayerTableRecord
  2
CENTRE
 70
     0
 62
     3
  6
CENTER
  0
LAYER
  5
57
100
AcDbSymbolTableRecord
100
AcDbLayerTableRecord
  2
M01
 70
     0
 62
     1
  6
CONTINUOUS
  0
LAYER
  5
21
100
AcDbSymbolTableRecord
100
AcDbLayerTableRecord
  2
M04
 70
     0
 62
     7
  6
CONTINUOUS
  0
LAYER
  5
1D
100
AcDbSymbolTableRecord
100
AcDbLayerTableRecord
  2
TEXT
 70
     0
 62
     2
  6
CONTINUOUS
  0
ENDTAB
  0
TABLE
  2
STYLE
  5
D
100
AcDbSymbolTable
 70
     1
  0
STYLE
  5
E
100
AcDbSymbolTableRecord
100
AcDbTextStyleTableRecord
  2
STANDARD
 70
     0
 40
0.0
 41
1.0
 50
0.0
 71
     0
 42
2.0
  3
SIMPLEX
  4

  0
ENDTAB
  0
TABLE
  2
VIEW
  5
12
100
AcDbSymbolTable
 70
     0
  0
ENDTAB
  0
TABLE
  2
UCS
  5
13
100
AcDbSymbolTable
 70
     0
  0
ENDTAB
  0
TABLE
  2
APPID
  5
16
100
AcDbSymbolTable
 70
     1
  0
APPID
  5
17
100
AcDbSymbolTableRecord
100
AcDbRegAppTableRecord
  2
ACAD
 70
     0
  0
ENDTAB
  0
TABLE
  2
DIMSTYLE
  5
18
100
AcDbSymbolTable
 70
     1
  0
DIMSTYLE
105
1F
100
AcDbSymbolTableRecord
100
AcDbDimStyleTableRecord
  2
DIM1
 70
     0
  3

  4

  5

  6

  7

 40
1.0
 41
3.0
 42
1.0
 43
10.0
 44
2.5
 45
0.01
 46
1.25
 47
0.05
 48
0.0
140
3.0
141
-1.7
142
0.0
143
0.039
144
0.2
145
1.5
146
0.7
147
1.5
 71
     0
 72
     0
 73
     0
 74
     0
 75
     0
 76
     0
 77
     3
 78
     1
170
     0
171
     2
172
     0
173
     0
174
     0
175
     0
176
     4
177
     4
178
     2
270
     2
271
     2
272
     2
273
     2
274
     2
340
E
275
     0
280
     0
281
     0
282
     0
283
     1
284
     1
285
     1
286
     1
287
     0
288
     0
  0
ENDTAB
  0
TABLE
  2
BLOCK_RECORD
  5
1
100
AcDbSymbolTable
 70
     0
  0
BLOCK_RECORD
  5
2
102
{ACAD_XDICTIONARY
360
3
102
}
100
AcDbSymbolTableRecord
100
AcDbBlockTableRecord
  2
*MODEL_SPACE
  0
BLOCK_RECORD
  5
9
100
AcDbSymbolTableRecord
100
AcDbBlockTableRecord
  2
*PAPER_SPACE
  0
ENDTAB
  0
ENDSEC
  0
SECTION
  2
BLOCKS
  0
BLOCK
  5
5
100
AcDbEntity
  8
0
100
AcDbBlockBegin
  2
*MODEL_SPACE
 70
     0
 10
0.0
 20
0.0
 30
0.0
  3
*MODEL_SPACE
  1

  0
ENDBLK
  5
8
100
AcDbEntity
  8
0
100
AcDbBlockEnd
  0
BLOCK
  5
A
100
AcDbEntity
 67
     1
  8
0
100
AcDbBlockBegin
  2
*PAPER_SPACE
 70
     0
 10
0.0
 20
0.0
 30
0.0
  3
*PAPER_SPACE
  1

  0
ENDBLK
  5
B
100
AcDbEntity
 67
     1
  8
0
100
AcDbBlockEnd
  0
ENDSEC
  0
SECTION
  2
ENTITIES
  0
ARC
  5
20
100
AcDbEntity
  8
M04
 48
0.5
100
AcDbCircle
 10
580.916002
 20
266.110618
 30
0.0
 40
1.5
100
AcDbArc
 50
195.0
 51
270.0
  0
LINE
  5
22
100
AcDbEntity
  8
M04
100
AcDbLine
 10
579.467114
 20
265.722389
 30
0.0
 11
578.82719
 21
268.110618
 31
0.0
  0
LINE
  5
23
100
AcDbEntity
  8
M04
 48
0.5
100
AcDbLine
 10
580.916002
 20
264.610618
 30
0.0
 11
581.67719
 21
264.610618
 31
0.0
  0
ARC
  5
24
100
AcDbEntity
  8
M04
 48
0.5
100
AcDbCircle
 10
580.916002
 20
279.110618
 30
0.0
 40
1.5
100
AcDbArc
 50
90.0
 51
165.0
  0
LINE
  5
25
100
AcDbEntity
  8
M04
100
AcDbLine
 10
579.467114
 20
279.498846
 30
0.0
 11
578.82719
 21
277.110618
 31
0.0
  0
LINE
  5
26
100
AcDbEntity
  8
M04
 48
0.5
100
AcDbLine
 10
580.916002
 20
280.610618
 30
0.0
 11
581.67719
 21
280.610618
 31
0.0
  0
LINE
  5
27
100
AcDbEntity
  8
M04
100
AcDbLine
 10
480.538708
 20
194.268453
 30
0.0
 11
573.538708
 21
194.268453
 31
0.0
  0
TEXT
  5
28
100
AcDbEntity
  8
TEXT
100
AcDbText
 10
551.366601
 20
195.823006
 30
0.0
 40
2.5
  1
%%C0.020"
100
AcDbText
  0
TEXT
  5
29
100
AcDbEntity
  8
TEXT
100
AcDbText
 10
510.83429
 20
195.823006
 30
0.0
 40
2.5
  1
STANDARD
100
AcDbText
  0
TEXT
  5
2A
100
AcDbEntity
  8
TEXT
100
AcDbText
 10
483.242955
 20
195.823006
 30
0.0
 40
2.5
  1
TP156003
100
AcDbText
  0
TEXT
  5
2B
100
AcDbEntity
  8
TEXT
100
AcDbText
 10
551.366601
 20
200.823006
 30
0.0
 40
2.5
  1
%%C0.020"
100
AcDbText
  0
TEXT
  5
2C
100
AcDbEntity
  8
TEXT
100
AcDbText
 10
510.83429
 20
200.823006
 30
0.0
 40
2.5
  1
WEAR RESISTANT
100
AcDbText
  0
TEXT
  5
2D
100
AcDbEntity
  8
TEXT
100
AcDbText
 10
483.242955
 20
200.823006
 30
0.0
 40
2.5
  1
TP156002
100
AcDbText
  0
TEXT
  5
2E
100
AcDbEntity
  8
TEXT
100
AcDbText
 10
551.366601
 20
205.823006
 30
0.0
 40
2.5
  1
%%C0.010"
100
AcDbText
  0
TEXT
  5
2F
100
AcDbEntity
  8
TEXT
100
AcDbText
 10
510.83429
 20
205.823006
 30
0.0
 40
2.5
  1
STANDARD
100
AcDbText
  0
TEXT
  5
30
100
AcDbEntity
  8
TEXT
100
AcDbText
 10
483.242955
 20
205.823006
 30
0.0
 40
2.5
  1
TP156001
100
AcDbText
  0
TEXT
  5
31
100
AcDbEntity
  8
TEXT
100
AcDbText
 10
479.90314
 20
229.932397
 30
0.0
 40
4.0
  1
%%UPIN POINT TIP OPTIONS
100
AcDbText
  0
LINE
  5
32
100
AcDbEntity
  8
M04
100
AcDbLine
 10
480.538708
 20
222.268453
 30
0.0
 11
573.538708
 21
222.268453
 31
0.0
  0
LINE
  5
33
100
AcDbEntity
  8
M04
100
AcDbLine
 10
573.538708
 20
222.268453
 30
0.0
 11
573.538708
 21
194.268453
 31
0.0
  0
TEXT
  5
34
100
AcDbEntity
  8
TEXT
100
AcDbText
 10
551.366601
 20
210.823006
 30
0.0
 40
2.5
  1
%%C0.010"
100
AcDbText
  0
TEXT
  5
35
100
AcDbEntity
  8
TEXT
100
AcDbText
 10
510.83429
 20
210.823006
 30
0.0
 40
2.5
  1
WEAR RESISTANT
100
AcDbText
  0
LINE
  5
36
100
AcDbEntity
  8
M04
100
AcDbLine
 10
547.538708
 20
222.268453
 30
0.0
 11
547.538708
 21
194.268453
 31
0.0
  0
LINE
  5
37
100
AcDbEntity
  8
M04
100
AcDbLine
 10
505.538708
 20
222.268453
 30
0.0
 11
505.538708
 21
194.268453
 31
0.0
  0
LINE
  5
38
100
AcDbEntity
  8
M04
100
AcDbLine
 10
480.538708
 20
222.268453
 30
0.0
 11
480.538708
 21
194.268453
 31
0.0
  0
TEXT
  5
39
100
AcDbEntity
  8
TEXT
100
AcDbText
 10
552.493251
 20
217.323006
 30
0.0
 40
2.5
  1
TIP FLAT
100
AcDbText
  0
TEXT
  5
3A
100
AcDbEntity
  8
TEXT
100
AcDbText
 10
518.506071
 20
217.323006
 30
0.0
 40
2.5
  1
MATERIAL
100
AcDbText
  0
LINE
  5
3B
100
AcDbEntity
  8
M04
100
AcDbLine
 10
480.538708
 20
215.268453
 30
0.0
 11
573.538708
 21
215.268453
 31
0.0
  0
TEXT
  5
3C
100
AcDbEntity
  8
TEXT
100
AcDbText
 10
483.242955
 20
210.823006
 30
0.0
 40
2.5
  1
TP156000
100
AcDbText
  0
TEXT
  5
3D
100
AcDbEntity
  8
TEXT
100
AcDbText
 10
483.242955
 20
217.323006
 30
0.0
 40
2.5
  1
PART No.
100
AcDbText
  0
MTEXT
  5
3E
100
AcDbEntity
  8
0
  6
BYBLOCK
 62
     2
100
AcDbMText
 10
616.294927
 20
290.719238
 30
0.0
 40
3.0
 41
0.0
 71
     5
 72
     1
  1
TIP INSERTION POINT
  0
SOLID
  5
3F
100
AcDbEntity
  8
0
  6
BYBLOCK
 62
     4
100
AcDbTrace
 10
578.555978
 20
276.455439
 30
0.0
 11
579.396994
 21
275.914428
 31
0.0
 12
577.353453
 22
273.661887
 32
0.0
 13
577.353453
 23
273.661887
 33
0.0
  0
LINE
  5
40
100
AcDbEntity
  8
0
  6
BYBLOCK
 62
     4
100
AcDbLine
 10
588.227147
 20
290.719238
 30
0.0
 11
591.227147
 21
290.719238
 31
0.0
  0
LINE
  5
41
100
AcDbEntity
  8
0
  6
BYBLOCK
 62
     4
100
AcDbLine
 10
578.976486
 20
276.184934
 30
0.0
 11
588.227147
 21
290.719238
 31
0.0
  0
CIRCLE
  5
42
100
AcDbEntity
  8
M04
100
AcDbCircle
 10
576.67719
 20
272.610618
 30
0.0
 40
1.25
  0
MTEXT
  5
43
100
AcDbEntity
  8
0
  6
BYBLOCK
 62
     2
100
AcDbMText
 10
532.657426
 20
291.939656
 30
0.0
 40
3.0
 41
0.0
 71
     5
 72
     1
  1
GATE INSERTION POINT
  0
SOLID
  5
44
100
AcDbEntity
  8
0
  6
BYBLOCK
 62
     4
100
AcDbTrace
 10
569.161011
 20
276.727962
 30
0.0
 11
568.237291
 21
276.344894
 31
0.0
 12
569.848355
 22
273.765268
 32
0.0
 13
569.848355
 23
273.765268
 33
0.0
  0
LINE
  5
45
100
AcDbEntity
  8
0
  6
BYBLOCK
 62
     4
100
AcDbLine
 10
562.278306
 20
291.939656
 30
0.0
 11
559.278306
 21
291.939656
 31
0.0
  0
LINE
  5
46
100
AcDbEntity
  8
0
  6
BYBLOCK
 62
     4
100
AcDbLine
 10
568.699151
 20
276.536428
 30
0.0
 11
562.278306
 21
291.939656
 31
0.0
  0
CIRCLE
  5
47
100
AcDbEntity
  8
M04
100
AcDbCircle
 10
570.32719
 20
272.610618
 30
0.0
 40
1.25
  0
LINE
  5
48
100
AcDbEntity
  8
M04
100
AcDbLine
 10
570.32719
 20
265.368622
 30
0.0
 11
570.32719
 21
272.483618
 31
0.0
  0
LINE
  5
49
100
AcDbEntity
  8
M04
100
AcDbLine
 10
571.550789
 20
271.20976
 30
0.0
 11
571.550789
 21
272.038264
 31
0.0
  0
LINE
  5
4A
100
AcDbEntity
  8
M04
100
AcDbLine
 10
575.82719
 20
268.110618
 30
0.0
 11
578.82719
 21
268.110618
 31
0.0
  0
ARC
  5
4B
100
AcDbEntity
  8
M04
100
AcDbCircle
 10
575.82719
 20
272.610618
 30
0.0
 40
4.5
100
AcDbArc
 50
198.137688
 51
270.0
  0
LINE
  5
4C
100
AcDbEntity
  8
M04
100
AcDbLine
 10
570.47719
 20
272.110618
 30
0.0
 11
571.550789
 21
271.20976
 31
0.0
  0
LINE
  5
4D
100
AcDbEntity
  8
M04
100
AcDbLine
 10
571.550789
 20
274.011475
 30
0.0
 11
571.550789
 21
273.182971
 31
0.0
  0
LINE
  5
4E
100
AcDbEntity
  8
M04
100
AcDbLine
 10
570.47719
 20
272.429022
 30
0.0
 11
570.47719
 21
272.110618
 31
0.0
  0
LINE
  5
4F
100
AcDbEntity
  8
M04
100
AcDbLine
 10
575.82719
 20
277.110618
 30
0.0
 11
578.82719
 21
277.110618
 31
0.0
  0
ARC
  5
50
100
AcDbEntity
  8
M04
100
AcDbCircle
 10
575.82719
 20
272.610618
 30
0.0
 40
4.5
100
AcDbArc
 50
90.0
 51
161.862312
  0
LINE
  5
51
100
AcDbEntity
  8
M04
100
AcDbLine
 10
570.47719
 20
273.110618
 30
0.0
 11
571.550789
 21
274.011475
 31
0.0
  0
LINE
  5
52
100
AcDbEntity
  8
M04
100
AcDbLine
 10
570.47719
 20
273.110618
 30
0.0
 11
570.47719
 21
272.792213
 31
0.0
  0
LINE
  5
53
100
AcDbEntity
  8
M04
100
AcDbLine
 10
570.32719
 20
272.110618
 30
0.0
 11
570.47719
 21
272.110618
 31
0.0
  0
LINE
  5
54
100
AcDbEntity
  8
M04
100
AcDbLine
 10
570.32719
 20
273.110618
 30
0.0
 11
570.47719
 21
273.110618
 31
0.0
  0
LINE
  5
55
100
AcDbEntity
  8
M04
100
AcDbLine
 10
570.32719
 20
279.852614
 30
0.0
 11
570.32719
 21
272.737618
 31
0.0
  0
LINE
  5
56
100
AcDbEntity
  8
M01
100
AcDbLine
 10
576.67719
 20
274.710618
 30
0.0
 11
576.67719
 21
270.510618
 31
0.0
  0
LINE
  5
58
100
AcDbEntity
  8
M01
100
AcDbLine
 10
570.32719
 20
272.737618
 30
0.0
 11
570.32719
 21
272.483618
 31
0.0
  0
ARC
  5
59
100
AcDbEntity
  8
M04
100
AcDbCircle
 10
571.82719
 20
272.610618
 30
0.0
 40
0.4
100
AcDbArc
 50
90.0
 51
270.0
  0
LINE
  5
5A
100
AcDbEntity
  8
M04
100
AcDbLine
 10
571.82719
 20
272.210618
 30
0.0
 11
575.747963
 21
271.860618
 31
0.0
  0
LINE
  5
5B
100
AcDbEntity
  8
M04
100
AcDbLine
 10
571.82719
 20
273.010618
 30
0.0
 11
575.747963
 21
273.360618
 31
0.0
  0
LINE
  5
5C
100
AcDbEntity
  8
M01
100
AcDbLine
 10
570.32719
 20
272.483618
 30
0.0
 11
575.747963
 21
270.510618
 31
0.0
  0
LINE
  5
5D
100
AcDbEntity
  8
M01
100
AcDbLine
 10
570.32719
 20
272.737618
 30
0.0
 11
575.747963
 21
274.710618
 31
0.0
  0
LINE
  5
5E
100
AcDbEntity
  8
M04
100
AcDbLine
 10
575.747963
 20
271.860618
 30
0.0
 11
576.67719
 21
271.860618
 31
0.0
  0
LINE
  5
5F
100
AcDbEntity
  8
M01
100
AcDbLine
 10
575.747963
 20
270.510618
 30
0.0
 11
576.67719
 21
270.510618
 31
0.0
  0
LINE
  5
60
100
AcDbEntity
  8
M01
100
AcDbLine
 10
575.747963
 20
274.710618
 30
0.0
 11
576.67719
 21
274.710618
 31
0.0
  0
LINE
  5
61
100
AcDbEntity
  8
M04
100
AcDbLine
 10
575.747963
 20
273.360618
 30
0.0
 11
576.67719
 21
273.360618
 31
0.0
  0
LINE
  5
62
100
AcDbEntity
  8
CENTRE
 48
0.5
100
AcDbLine
 10
567.32719
 20
272.610618
 30
0.0
 11
584.798506
 21
272.610618
 31
0.0
  0
ENDSEC
  0
SECTION
  2
OBJECTS
  0
DICTIONARY
  5
1C
100
AcDbDictionary
  3
ACAD_GROUP
350
1A
  3
ACAD_MLINESTYLE
350
1B
  0
DICTIONARY
  5
3
100
AcDbDictionary
280
     1
  3
ACAD_SORTENTS
360
4
  0
DICTIONARY
  5
1A
102
{ACAD_REACTORS
330
1C
102
}
100
AcDbDictionary
  0
DICTIONARY
  5
1B
102
{ACAD_REACTORS
330
1C
102
}
100
AcDbDictionary
  3
STANDARD
350
1E
  0
SORTENTSTABLE
  5
4
102
{ACAD_REACTORS
330
3
102
}
100
AcDbSortentsTable
330
2
  0
MLINESTYLE
  5
1E
102
{ACAD_REACTORS
330
1B
102
}
100
AcDbMlineStyle
  2
STANDARD
 70
     0
  3

 62
   256
 51
90.0
 52
90.0
 71
     2
 49
0.5
 62
   256
  6
BYLAYER
 49
-0.5
 62
   256
  6
BYLAYER
  0
ENDSEC
  0
EOF
