  0
SECTION
  2
HEADER
  9
$ACADVER
  1
AC1015
  9
$ACADMAINTVER
 70
    13
  9
$DWGCODEPAGE
  3
ANSI_1252
  9
$INSBASE
 10
0.0
 20
0.0
 30
0.0
  9
$EXTMIN
 10
462.6074011414089
 20
241.5910134259803
 30
0.0
  9
$EXTMAX
 10
618.0809522081332
 20
451.6862200544552
 30
0.0
  9
$LIMMIN
 10
0.0
 20
0.0
  9
$LIMMAX
 10
1189.0
 20
841.0
  9
$ORTHOMODE
 70
     0
  9
$REGENMODE
 70
     1
  9
$FILLMODE
 70
     1
  9
$QTEXTMODE
 70
     0
  9
$MIRRTEXT
 70
     0
  9
$LTSCALE
 40
8.0
  9
$ATTMODE
 70
     1
  9
$TEXTSIZE
 40
2.0
  9
$TRACEWID
 40
10.0
  9
$TEXTSTYLE
  7
STANDARD
  9
$CLAYER
  8
0
  9
$CELTYPE
  6
BYLAYER
  9
$CECOLOR
 62
   256
  9
$CELTSCALE
 40
1.0
  9
$DISPSILH
 70
     0
  9
$DIMSCALE
 40
1.0
  9
$DIMASZ
 40
3.0
  9
$DIMEXO
 40
1.0
  9
$DIMDLI
 40
10.0
  9
$DIMRND
 40
0.01
  9
$DIMDLE
 40
1.25
  9
$DIMEXE
 40
2.5
  9
$DIMTP
 40
0.05
  9
$DIMTM
 40
0.0
  9
$DIMTXT
 40
3.0
  9
$DIMCEN
 40
-1.7
  9
$DIMTSZ
 40
0.0
  9
$DIMTOL
 70
     0
  9
$DIMLIM
 70
     0
  9
$DIMTIH
 70
     0
  9
$DIMTOH
 70
     0
  9
$DIMSE1
 70
     0
  9
$DIMSE2
 70
     0
  9
$DIMTAD
 70
     3
  9
$DIMZIN
 70
     1
  9
$DIMBLK
  1

  9
$DIMASO
 70
     1
  9
$DIMSHO
 70
     0
  9
$DIMPOST
  1

  9
$DIMAPOST
  1

  9
$DIMALT
 70
     0
  9
$DIMALTD
 70
     2
  9
$DIMALTF
 40
0.039
  9
$DIMLFAC
 40
1.0
  9
$DIMTOFL
 70
     0
  9
$DIMTVP
 40
1.5
  9
$DIMTIX
 70
     0
  9
$DIMSOXD
 70
     0
  9
$DIMSAH
 70
     0
  9
$DIMBLK1
  1

  9
$DIMBLK2
  1

  9
$DIMSTYLE
  2
DIM1
  9
$DIMCLRD
 70
     4
  9
$DIMCLRE
 70
     4
  9
$DIMCLRT
 70
     2
  9
$DIMTFAC
 40
0.7
  9
$DIMGAP
 40
1.5
  9
$DIMJUST
 70
     0
  9
$DIMSD1
 70
     0
  9
$DIMSD2
 70
     0
  9
$DIMTOLJ
 70
     1
  9
$DIMTZIN
 70
     1
  9
$DIMALTZ
 70
     1
  9
$DIMALTTZ
 70
     1
  9
$DIMUPT
 70
     0
  9
$DIMDEC
 70
     2
  9
$DIMTDEC
 70
     2
  9
$DIMALTU
 70
     2
  9
$DIMALTTD
 70
     2
  9
$DIMTXSTY
  7
STANDARD
  9
$DIMAUNIT
 70
     0
  9
$DIMADEC
 70
     0
  9
$DIMALTRND
 40
0.0
  9
$DIMAZIN
 70
     0
  9
$DIMDSEP
 70
    46
  9
$DIMATFIT
 70
     0
  9
$DIMFRAC
 70
     0
  9
$DIMLDRBLK
  1

  9
$DIMLUNIT
 70
     2
  9
$DIMLWD
 70
    -2
  9
$DIMLWE
 70
    -2
  9
$DIMTMOVE
 70
     0
  9
$LUNITS
 70
     2
  9
$LUPREC
 70
     2
  9
$SKETCHINC
 40
1.0
  9
$FILLETRAD
 40
24.0
  9
$AUNITS
 70
     0
  9
$AUPREC
 70
     3
  9
$MENU
  1
ACAD
  9
$ELEVATION
 40
0.0
  9
$PELEVATION
 40
0.0
  9
$THICKNESS
 40
0.0
  9
$LIMCHECK
 70
     0
  9
$CHAMFERA
 40
0.5
  9
$CHAMFERB
 40
0.5
  9
$CHAMFERC
 40
0.0
  9
$CHAMFERD
 40
0.0
  9
$SKPOLY
 70
     1
  9
$TDCREATE
 40
2449993.725698611
  9
$TDUCREATE
 40
2449993.725698611
  9
$TDUPDATE
 40
2455244.702101990
  9
$TDUUPDATE
 40
2455244.702101990
  9
$TDINDWG
 40
1.7576747917
  9
$TDUSRTIMER
 40
1.7576747917
  9
$USRTIMER
 70
     1
  9
$ANGBASE
 50
0.0
  9
$ANGDIR
 70
     0
  9
$PDMODE
 70
     3
  9
$PDSIZE
 40
0.0
  9
$PLINEWID
 40
0.0
  9
$SPLFRAME
 70
     0
  9
$SPLINETYPE
 70
     6
  9
$SPLINESEGS
 70
     6
  9
$HANDSEED
  5
8ECA
  9
$SURFTAB1
 70
    12
  9
$SURFTAB2
 70
    12
  9
$SURFTYPE
 70
     6
  9
$SURFU
 70
    12
  9
$SURFV
 70
    12
  9
$UCSBASE
  2

  9
$UCSNAME
  2

  9
$UCSORG
 10
578.4833765754188
 20
409.2077421121927
 30
0.0
  9
$UCSXDIR
 10
1.0
 20
0.0
 30
0.0
  9
$UCSYDIR
 10
0.0
 20
1.0
 30
0.0
  9
$UCSORTHOREF
  2

  9
$UCSORTHOVIEW
 70
     0
  9
$UCSORGTOP
 10
0.0
 20
0.0
 30
0.0
  9
$UCSORGBOTTOM
 10
0.0
 20
0.0
 30
0.0
  9
$UCSORGLEFT
 10
0.0
 20
0.0
 30
0.0
  9
$UCSORGRIGHT
 10
0.0
 20
0.0
 30
0.0
  9
$UCSORGFRONT
 10
0.0
 20
0.0
 30
0.0
  9
$UCSORGBACK
 10
0.0
 20
0.0
 30
0.0
  9
$PUCSBASE
  2

  9
$PUCSNAME
  2

  9
$PUCSORG
 10
0.0
 20
0.0
 30
0.0
  9
$PUCSXDIR
 10
1.0
 20
0.0
 30
0.0
  9
$PUCSYDIR
 10
0.0
 20
1.0
 30
0.0
  9
$PUCSORTHOREF
  2

  9
$PUCSORTHOVIEW
 70
     0
  9
$PUCSORGTOP
 10
0.0
 20
0.0
 30
0.0
  9
$PUCSORGBOTTOM
 10
0.0
 20
0.0
 30
0.0
  9
$PUCSORGLEFT
 10
0.0
 20
0.0
 30
0.0
  9
$PUCSORGRIGHT
 10
0.0
 20
0.0
 30
0.0
  9
$PUCSORGFRONT
 10
0.0
 20
0.0
 30
0.0
  9
$PUCSORGBACK
 10
0.0
 20
0.0
 30
0.0
  9
$USERI1
 70
     0
  9
$USERI2
 70
     0
  9
$USERI3
 70
     0
  9
$USERI4
 70
     0
  9
$USERI5
 70
     0
  9
$USERR1
 40
0.0
  9
$USERR2
 40
0.0
  9
$USERR3
 40
0.0
  9
$USERR4
 40
0.0
  9
$USERR5
 40
0.0
  9
$WORLDVIEW
 70
     0
  9
$SHADEDGE
 70
     3
  9
$SHADEDIF
 70
    70
  9
$TILEMODE
 70
     1
  9
$MAXACTVP
 70
    16
  9
$PINSBASE
 10
0.0
 20
0.0
 30
0.0
  9
$PLIMCHECK
 70
     0
  9
$PEXTMIN
 10
1.000000000000000E+20
 20
1.000000000000000E+20
 30
1.000000000000000E+20
  9
$PEXTMAX
 10
-1.000000000000000E+20
 20
-1.000000000000000E+20
 30
-1.000000000000000E+20
  9
$PLIMMIN
 10
0.0
 20
0.0
  9
$PLIMMAX
 10
12.0
 20
9.0
  9
$UNITMODE
 70
     0
  9
$VISRETAIN
 70
     0
  9
$PLINEGEN
 70
     0
  9
$PSLTSCALE
 70
     0
  9
$TREEDEPTH
 70
  3020
  9
$CMLSTYLE
  2
STANDARD
  9
$CMLJUST
 70
     0
  9
$CMLSCALE
 40
1.0
  9
$PROXYGRAPHICS
 70
     1
  9
$MEASUREMENT
 70
     0
  9
$CELWEIGHT
370
    -1
  9
$ENDCAPS
280
     0
  9
$JOINSTYLE
280
     0
  9
$LWDISPLAY
290
     0
  9
$INSUNITS
 70
     0
  9
$HYPERLINKBASE
  1

  9
$STYLESHEET
  1

  9
$XEDIT
290
     1
  9
$CEPSNTYPE
380
     0
  9
$PSTYLEMODE
290
     1
  9
$FINGERPRINTGUID
  2
{25DB17C0-51EF-11DA-A1A5-00055D4BFF93}
  9
$VERSIONGUID
  2
{EF945005-6554-484A-9975-B69B8EAC3ADD}
  9
$EXTNAMES
290
     1
  9
$PSVPSCALE
 40
0.0
  9
$OLESTARTUP
290
     0
  0
ENDSEC
  0
SECTION
  2
CLASSES
  0
CLASS
  1
DICTIONARYVAR
  2
AcDbDictionaryVar
  3
AutoCAD 2000
 90
        0
280
     0
281
     0
  0
CLASS
  1
LWPOLYLINE
  2
AcDbPolyline
  3
AutoCAD 2000
 90
    32768
280
     0
281
     1
  0
CLASS
  1
HATCH
  2
AcDbHatch
  3
AutoCAD 2000
 90
    32768
280
     0
281
     1
  0
CLASS
  1
SORTENTSTABLE
  2
AcDbSortentsTable
  3
AutoCAD 2000
 90
        0
280
     0
281
     0
  0
CLASS
  1
WIPEOUTVARIABLES
  2
AcDbWipeoutVariables
  3
WIPEOUT
 90
        0
280
     0
281
     0
  0
CLASS
  1
WIPEOUT
  2
AcDbWipeout
  3
WIPEOUT
 90
      127
280
     0
281
     1
  0
CLASS
  1
ACDBDICTIONARYWDFLT
  2
AcDbDictionaryWithDefault
  3
AutoCAD 2000
 90
        0
280
     0
281
     0
  0
CLASS
  1
ACDBPLACEHOLDER
  2
AcDbPlaceHolder
  3
AutoCAD 2000
 90
        0
280
     0
281
     0
  0
CLASS
  1
LAYOUT
  2
AcDbLayout
  3
AutoCAD 2000
 90
        0
280
     0
281
     0
  0
ENDSEC
  0
SECTION
  2
TABLES
  0
TABLE
  2
VPORT
  5
8
330
0
100
AcDbSymbolTable
 70
     3
  0
VPORT
  5
8EC9
330
8
100
AcDbSymbolTableRecord
100
AcDbViewportTableRecord
  2
*Active
 70
     0
 10
0.0
 20
0.0
 11
1.0
 21
1.0
 12
604.5650618856101
 22
326.6967562699535
 13
0.0
 23
0.0
 14
10.0
 24
10.0
 15
0.0
 25
0.0
 16
0.0
 26
0.0
 36
1.0
 17
16.3133211678832
 27
12.7791147637061
 37
0.2229487474867098
 40
425.8973605712736
 41
1.533333333333333
 42
50.0
 43
0.0
 44
0.0
 50
0.0
 51
0.0
 71
     0
 72
  2000
 73
     1
 74
     2
 75
     0
 76
     0
 77
     0
 78
     1
281
     0
 65
     1
110
578.4833765754188
120
409.2077421121927
130
0.0
111
1.0
121
0.0
131
0.0
112
0.0
122
1.0
132
0.0
 79
     0
146
0.0
  0
ENDTAB
  0
TABLE
  2
LTYPE
  5
5
330
0
100
AcDbSymbolTable
 70
     3
  0
LTYPE
  5
11
330
5
100
AcDbSymbolTableRecord
100
AcDbLinetypeTableRecord
  2
BYBLOCK
 70
     0
  3

 72
    65
 73
     0
 40
0.0
  0
LTYPE
  5
12
330
5
100
AcDbSymbolTableRecord
100
AcDbLinetypeTableRecord
  2
BYLAYER
 70
     0
  3

 72
    65
 73
     0
 40
0.0
  0
LTYPE
  5
13
330
5
100
AcDbSymbolTableRecord
100
AcDbLinetypeTableRecord
  2
CONTINUOUS
 70
     0
  3
Solid line
 72
    65
 73
     0
 40
0.0
  0
LTYPE
  5
425C
330
5
100
AcDbSymbolTableRecord
100
AcDbLinetypeTableRecord
  2
CENTER
 70
     0
  3
Center ____ _ ____ _ ____ _ ____ _ ____ _ ____
 72
    65
 73
     4
 40
2.0
 49
1.25
 74
     0
 49
-0.25
 74
     0
 49
0.25
 74
     0
 49
-0.25
 74
     0
  0
LTYPE
  5
42A4
330
5
100
AcDbSymbolTableRecord
100
AcDbLinetypeTableRecord
  2
HIDDEN
 70
     0
  3
Hidden __ __ __ __ __ __ __ __ __ __ __ __ __ _
 72
    65
 73
     2
 40
0.375
 49
0.25
 74
     0
 49
-0.125
 74
     0
  0
ENDTAB
  0
TABLE
  2
LAYER
  5
2
330
0
100
AcDbSymbolTable
 70
     8
  0
LAYER
  5
E
330
2
100
AcDbSymbolTableRecord
100
AcDbLayerTableRecord
  2
0
 70
     0
 62
     7
  6
CONTINUOUS
370
    -3
390
8ABE
  0
LAYER
  5
425D
330
2
100
AcDbSymbolTableRecord
100
AcDbLayerTableRecord
  2
CENTRE
 70
     0
 62
     3
  6
CENTER
370
    -3
390
8ABE
  0
LAYER
  5
4261
330
2
100
AcDbSymbolTableRecord
100
AcDbLayerTableRecord
  2
M01
 70
     0
 62
     1
  6
CONTINUOUS
370
    -3
390
8ABE
  0
LAYER
  5
42A5
330
2
100
AcDbSymbolTableRecord
100
AcDbLayerTableRecord
  2
M03
 70
     0
 62
     2
  6
HIDDEN
370
    -3
390
8ABE
  0
LAYER
  5
42B0
330
2
100
AcDbSymbolTableRecord
100
AcDbLayerTableRecord
  2
M04
 70
     0
 62
     7
  6
CONTINUOUS
370
    -3
390
8ABE
  0
LAYER
  5
432E
330
2
100
AcDbSymbolTableRecord
100
AcDbLayerTableRecord
  2
DIMS
 70
     0
 62
     4
  6
CONTINUOUS
370
    -3
390
8ABE
  0
LAYER
  5
432F
330
2
100
AcDbSymbolTableRecord
100
AcDbLayerTableRecord
  2
TEXT
 70
     0
 62
     2
  6
CONTINUOUS
370
    -3
390
8ABE
  0
LAYER
  5
4570
330
2
100
AcDbSymbolTableRecord
100
AcDbLayerTableRecord
  2
DEFPOINTS
 70
     0
 62
     7
  6
CONTINUOUS
290
     0
370
    -3
390
8ABE
  0
ENDTAB
  0
TABLE
  2
STYLE
  5
3
330
0
100
AcDbSymbolTable
 70
     1
  0
STYLE
  5
F
330
3
100
AcDbSymbolTableRecord
100
AcDbTextStyleTableRecord
  2
STANDARD
 70
     0
 40
0.0
 41
1.0
 50
0.0
 71
     0
 42
2.0
  3
SIMPLEX
  4

  0
ENDTAB
  0
TABLE
  2
VIEW
  5
6
330
0
100
AcDbSymbolTable
 70
     0
  0
ENDTAB
  0
TABLE
  2
UCS
  5
7
330
0
100
AcDbSymbolTable
 70
     0
  0
ENDTAB
  0
TABLE
  2
APPID
  5
9
330
0
100
AcDbSymbolTable
 70
     6
  0
APPID
  5
10
330
9
100
AcDbSymbolTableRecord
100
AcDbRegAppTableRecord
  2
ACAD
 70
     0
  0
APPID
  5
114A
330
9
100
AcDbSymbolTableRecord
100
AcDbRegAppTableRecord
  2
CONTENTTABDATA
 70
     0
  0
APPID
  5
114B
330
9
100
AcDbSymbolTableRecord
100
AcDbRegAppTableRecord
  2
CONTENTCURRENTTAB
 70
     0
  0
APPID
  5
424D
330
9
100
AcDbSymbolTableRecord
100
AcDbRegAppTableRecord
  2
RAK
 70
     0
  0
APPID
  5
8175
330
9
100
AcDbSymbolTableRecord
100
AcDbRegAppTableRecord
  2
DRAWINGVARIABLESXDATA
 70
     0
  0
APPID
  5
8176
330
9
100
AcDbSymbolTableRecord
100
AcDbRegAppTableRecord
  2
CONTENTBLOCKDESCRIPTION
 70
     0
  0
ENDTAB
  0
TABLE
  2
DIMSTYLE
  5
A
330
0
100
AcDbSymbolTable
 70
    10
100
AcDbDimStyleTable
 71
     1
340
1011
  0
DIMSTYLE
105
25
330
A
100
AcDbSymbolTableRecord
100
AcDbDimStyleTableRecord
  2
AUDIT_I_100216163610-8
 70
     0
 41
3.0
 42
1.0
 43
10.0
 44
2.5
 45
0.01
 46
1.25
 73
     0
 74
     0
 77
     1
 78
     1
140
3.0
141
-0.07
143
0.039
145
1.5
147
0.0
176
     4
177
     4
178
     2
271
     2
272
     2
279
     2
284
     1
285
     1
286
     1
340
F
  0
DIMSTYLE
105
1011
330
A
100
AcDbSymbolTableRecord
100
AcDbDimStyleTableRecord
  2
DIM1
 70
     0
 41
3.0
 42
1.0
 43
10.0
 44
2.5
 45
0.01
 46
1.25
 47
0.05
 73
     0
 74
     0
 77
     3
 78
     1
140
3.0
141
-1.7
143
0.039
144
0.2
145
1.5
146
0.7
147
1.5
176
     4
177
     4
178
     2
271
     2
272
     2
284
     1
285
     1
286
     1
289
     0
340
F
  0
DIMSTYLE
105
101D
330
A
100
AcDbSymbolTableRecord
100
AcDbDimStyleTableRecord
  2
DIM1$2
 70
     0
 41
3.0
 42
1.0
 43
10.0
 44
2.5
 45
0.01
 46
1.25
 77
     1
 78
     1
140
3.0
141
-1.7
143
0.039
145
1.5
147
0.0
176
     4
177
     4
178
     2
179
     2
271
     2
272
     2
279
     2
284
     1
285
     1
286
     1
340
F
  0
DIMSTYLE
105
1025
330
A
100
AcDbSymbolTableRecord
100
AcDbDimStyleTableRecord
  2
DIM1$3
 70
     0
 41
3.0
 42
1.0
 43
10.0
 44
2.5
 45
0.01
 46
1.25
 78
     1
140
3.0
141
-1.7
143
0.039
147
0.0
172
     1
176
     4
177
     4
178
     2
271
     2
272
     2
284
     1
285
     1
286
     1
288
     1
289
     2
340
F
  0
DIMSTYLE
105
1061
330
A
100
AcDbSymbolTableRecord
100
AcDbDimStyleTableRecord
  2
DIM1$7
 70
     0
 41
3.0
 42
1.0
 43
10.0
 44
2.5
 45
0.01
 46
1.25
 73
     0
 74
     0
 78
     1
140
3.0
141
-1.7
143
0.039
147
1.5
176
     4
177
     4
178
     2
271
     2
272
     2
284
     1
285
     1
286
     1
289
     0
340
F
  0
DIMSTYLE
105
10B4
330
A
100
AcDbSymbolTableRecord
100
AcDbDimStyleTableRecord
  2
DIM1$4
 70
     0
 41
3.0
 42
1.0
 43
10.0
 44
2.5
 45
0.01
 46
1.25
 78
     1
140
3.0
141
-1.7
143
0.039
147
1.5
172
     1
176
     4
177
     4
178
     2
271
     2
272
     2
284
     1
285
     1
286
     1
288
     1
289
     0
340
F
  0
DIMSTYLE
105
10F8
330
A
100
AcDbSymbolTableRecord
100
AcDbDimStyleTableRecord
  2
DIM1$6
 70
     0
 41
3.0
 42
1.0
 43
10.0
 44
2.5
 45
0.01
 46
1.25
 73
     0
 74
     0
 78
     1
140
3.0
141
-1.7
143
0.039
147
1.5
176
     4
177
     4
178
     2
271
     2
272
     2
284
     1
285
     1
286
     1
289
     0
340
F
  0
DIMSTYLE
105
1EEC
330
A
100
AcDbSymbolTableRecord
100
AcDbDimStyleTableRecord
  2
TWOPLACES
 70
     0
 41
5.0
 42
2.5
 43
10.0
 44
2.5
 45
0.01
 73
     0
 74
     0
 77
     1
140
3.5
141
3.0
143
0.039
144
0.5
146
0.75
147
1.5
271
     2
340
F
  0
DIMSTYLE
105
21CF
330
A
100
AcDbSymbolTableRecord
100
AcDbDimStyleTableRecord
  2
STANDARD
 70
     0
340
F
  0
DIMSTYLE
105
7A1E
330
A
100
AcDbSymbolTableRecord
100
AcDbDimStyleTableRecord
  2
STANDARD_WS
 70
     0
 41
2.5
 42
0.625
 43
3.75
 44
1.25
 73
     0
 74
     0
 77
     1
 78
     8
140
2.5
141
2.5
143
0.0394
147
0.625
171
     4
172
     1
273
     8
274
     4
340
F
  0
ENDTAB
  0
TABLE
  2
BLOCK_RECORD
  5
1
330
0
100
AcDbSymbolTable
 70
     0
  0
BLOCK_RECORD
  5
17
102
{ACAD_XDICTIONARY
360
20BE
102
}
330
1
100
AcDbSymbolTableRecord
100
AcDbBlockTableRecord
  2
*MODEL_SPACE
340
8AC1
  0
BLOCK_RECORD
  5
14
330
1
100
AcDbSymbolTableRecord
100
AcDbBlockTableRecord
  2
*PAPER_SPACE
340
8AC2
  0
ENDTAB
  0
ENDSEC
  0
SECTION
  2
BLOCKS
  0
BLOCK
  5
31
330
17
100
AcDbEntity
  8
0
100
AcDbBlockBegin
  2
*MODEL_SPACE
 70
     0
 10
0.0
 20
0.0
 30
0.0
  3
*MODEL_SPACE
  1

  0
ENDBLK
  5
32
330
17
100
AcDbEntity
  8
0
100
AcDbBlockEnd
  0
BLOCK
  5
2F
330
14
100
AcDbEntity
 67
     1
  8
0
100
AcDbBlockBegin
  2
*PAPER_SPACE
 70
     0
 10
0.0
 20
0.0
 30
0.0
  3
*PAPER_SPACE
  1

  0
ENDBLK
  5
30
330
14
100
AcDbEntity
 67
     1
  8
0
100
AcDbBlockEnd
  0
ENDSEC
  0
SECTION
  2
ENTITIES
  0
ACAD_PROXY_ENTITY
  5
6FE3
330
17
100
AcDbEntity
  8
TEXT
100
AcDbProxyEntity
 90
      498
 91
      505
 95
   589845
 70
     0
 92
        8
310
0800000000000000
 93
     1035
310
8A10DE4DA5DB889400F0467D0C67A56900C8DD91A59589CCBF2843BAA8038CD2102A2843BAA8038CD21020000000000000000000000000000000041E64640081209205A7126080F907EF7D5F09FD76BB57FB9FFFFFFFFFFBE7EF7D5F09FD76BB57E000000000001C07FB1FFFFFFFFFFBF7E585C7126080F907E00000000000
310
1C17E0
340
0
360
0
 94
        0
  0
LINE
  5
84E3
330
17
100
AcDbEntity
  8
CENTRE
 48
0.7
100
AcDbLine
 10
608.1559522081331
 20
318.3594705992558
 30
0.0
 11
616.6559522081331
 21
318.3594705992558
 31
0.0
  0
LINE
  5
8538
330
17
100
AcDbEntity
  8
M01
100
AcDbLine
 10
616.5709522081329
 20
388.3459687483063
 30
0.0
 11
612.5809522081331
 21
388.3459687483063
 31
0.0
  0
LINE
  5
8539
330
17
100
AcDbEntity
  8
M01
100
AcDbLine
 10
618.0809522081332
 20
416.3459687483065
 30
0.0
 11
611.0809522081329
 21
416.3459687483061
 31
0.0
  0
LINE
  5
853A
330
17
100
AcDbEntity
  8
M01
100
AcDbLine
 10
618.0809522081332
 20
406.3459687483065
 30
0.0
 11
618.0809522081332
 21
416.3459687483065
 31
0.0
  0
LINE
  5
853B
330
17
100
AcDbEntity
  8
M01
100
AcDbLine
 10
616.5709522081329
 20
388.3459687483063
 30
0.0
 11
617.5809522081331
 21
398.2707119326384
 31
0.0
  0
LINE
  5
853C
330
17
100
AcDbEntity
  8
M01
100
AcDbLine
 10
611.0809522081329
 20
406.3459687483061
 30
0.0
 11
611.0809522081329
 21
416.3459687483061
 31
0.0
  0
LINE
  5
853D
330
17
100
AcDbEntity
  8
M01
100
AcDbLine
 10
612.5809522081332
 20
388.3459687483063
 30
0.0
 11
611.5809522081327
 21
398.270711932639
 31
0.0
  0
LINE
  5
853E
330
17
100
AcDbEntity
  8
M01
100
AcDbLine
 10
611.5809522081327
 20
398.270711932639
 30
0.0
 11
611.5809522081328
 21
406.3459687483063
 31
0.0
  0
LINE
  5
853F
330
17
100
AcDbEntity
  8
M01
100
AcDbLine
 10
617.5809522081331
 20
398.2707119326384
 30
0.0
 11
617.580952208133
 21
406.3459687483063
 31
0.0
  0
LINE
  5
8540
330
17
100
AcDbEntity
  8
M01
100
AcDbLine
 10
611.5809522081327
 20
398.270711932639
 30
0.0
 11
617.5809522081331
 21
398.2707119326384
 31
0.0
  0
LINE
  5
8541
330
17
100
AcDbEntity
  8
M01
100
AcDbLine
 10
618.0809522081332
 20
406.3459687483065
 30
0.0
 11
611.0809522081329
 21
406.3459687483061
 31
0.0
  0
LINE
  5
8544
330
17
100
AcDbEntity
  8
CENTRE
 48
0.7
100
AcDbLine
 10
614.580952208133
 20
378.0206770307287
 30
0.0
 11
614.580952208133
 21
451.0962635646285
 31
0.0
  0
LINE
  5
8558
330
17
100
AcDbEntity
  8
M01
100
AcDbLine
 10
616.8309522081333
 20
416.3459687483064
 30
0.0
 11
616.8309522081334
 21
416.4021211752226
 31
0.0
  0
LINE
  5
857E
330
17
100
AcDbEntity
  8
M01
100
AcDbLine
 10
612.5809522081332
 20
388.3459687483063
 30
0.0
 11
612.5809522081332
 21
382.1957051622347
 31
0.0
  0
LINE
  5
857F
330
17
100
AcDbEntity
  8
M01
100
AcDbLine
 10
616.5709522081329
 20
388.3459687483063
 30
0.0
 11
616.5709522081331
 21
381.4680546422516
 31
0.0
  0
LINE
  5
858D
330
17
100
AcDbEntity
  8
CENTRE
100
AcDbLine
 10
536.1074011414088
 20
318.3594705992558
 30
0.0
 11
462.6074011414089
 21
318.3594705992558
 31
0.0
  0
LINE
  5
859F
330
17
100
AcDbEntity
  8
CENTRE
 48
0.7
100
AcDbLine
 10
499.3574011414087
 20
281.6094705992558
 30
0.0
 11
499.3574011414087
 21
363.3594705992559
 31
0.0
  0
LINE
  5
8AE7
102
{ACAD_REACTORS
330
8E46
102
}
330
17
100
AcDbEntity
  8
M01
100
AcDbLine
 10
616.6459522081331
 20
342.4894705992558
 30
0.0
 11
614.905952208133
 21
342.4894705992558
 31
0.0
  0
LINE
  5
8AE8
102
{ACAD_REACTORS
330
8E46
102
}
330
17
100
AcDbEntity
  8
M01
100
AcDbLine
 10
616.6459522081331
 20
294.2294705992558
 30
0.0
 11
614.905952208133
 21
294.2294705992558
 31
0.0
  0
LINE
  5
8AEF
330
17
100
AcDbEntity
  8
M01
100
AcDbLine
 10
612.4059522081331
 20
342.4894705992558
 30
0.0
 11
612.4059522081331
 21
294.2294705992559
 31
0.0
  0
LINE
  5
8AF5
102
{ACAD_REACTORS
330
8E46
102
}
330
17
100
AcDbEntity
  8
M01
100
AcDbLine
 10
614.9059522081331
 20
294.2294705992559
 30
0.0
 11
604.3809522081335
 21
294.2294705992558
 31
0.0
  0
LINE
  5
8AF6
102
{ACAD_REACTORS
330
8E46
102
}
330
17
100
AcDbEntity
  8
M01
100
AcDbLine
 10
614.9059522081331
 20
342.4894705992558
 30
0.0
 11
604.380952208133
 21
342.4894705992558
 31
0.0
  0
LINE
  5
8B09
102
{ACAD_REACTORS
330
8E46
102
}
330
17
100
AcDbEntity
  8
M01
100
AcDbLine
 10
604.380952208133
 20
357.3594705992557
 30
0.0
 11
604.380952208133
 21
342.4894705992558
 31
0.0
  0
LINE
  5
8B30
330
17
100
AcDbEntity
  8
M04
100
AcDbLine
 10
608.580952208133
 20
451.6862200544552
 30
0.0
 11
608.5809522081328
 21
379.3889655358678
 31
0.0
  0
LINE
  5
8B36
330
17
100
AcDbEntity
  8
M01
100
AcDbLine
 10
609.5693934477761
 20
358.5750654359976
 30
0.0
 11
615.3825109684902
 21
374.6764968676588
 31
0.0
  0
LINE
  5
8B37
330
17
100
AcDbEntity
  8
M01
100
AcDbLine
 10
605.8070816957044
 20
359.9333769909154
 30
0.0
 11
611.3925109684903
 21
375.404147387642
 31
0.0
  0
ARC
  5
8B38
330
17
100
AcDbEntity
  8
M01
100
AcDbCircle
 10
592.5809522081332
 20
382.1957051622347
 30
0.0
 40
20.0
100
AcDbArc
 50
340.1488411351243
 51
0.0
  0
ARC
  5
8B3B
330
17
100
AcDbEntity
  8
M01
100
AcDbCircle
 10
596.5709522081331
 20
381.4680546422516
 30
0.0
 40
20.0
100
AcDbArc
 50
340.1488411351243
 51
0.0000000000001781
  0
LINE
  5
8B4F
330
17
100
AcDbEntity
  8
0
100
AcDbLine
 10
600.6006858538341
 20
292.3594705992558
 30
0.0
 11
600.6006858538341
 21
294.2294705992558
 31
0.0
  0
LINE
  5
8C38
330
17
100
AcDbEntity
  8
M01
100
AcDbLine
 10
612.0809522081331
 20
441.3666433246353
 30
0.0
 11
612.080952208133
 21
416.3459687483062
 31
0.0
  0
LINE
  5
8C3A
330
17
100
AcDbEntity
  8
M01
100
AcDbLine
 10
617.0809522081331
 20
442.7063892867909
 30
0.0
 11
617.0809522081331
 21
416.3459687483065
 31
0.0
  0
HATCH
  5
8C43
330
17
100
AcDbEntity
  8
M01
100
AcDbHatch
 10
0.0
 20
0.0
 30
0.0
210
0.0
220
0.0
230
1.0
  2
ANSI31
 70
     0
 71
     0
 91
        2
 92
        7
 72
     0
 73
     1
 93
        4
 10
614.580952208133
 20
442.0365163057131
 10
612.0809522081331
 20
441.3666433246354
 10
612.080952208133
 20
416.3459687483062
 10
614.580952208133
 20
416.3459687483063
 97
        0
 92
        7
 72
     0
 73
     1
 93
        4
 10
617.0809522081331
 20
442.7063892867909
 10
614.580952208133
 20
442.0365163057131
 10
614.580952208133
 20
416.3459687483063
 10
617.0809522081331
 20
416.3459687483065
 97
        0
 75
     0
 76
     1
 52
0.0
 41
10.0
 77
     0
 78
     1
 53
45.0
 43
543.4833765754189
 44
409.2077421121927
 45
-0.8838834764831842
 46
0.8838834764831844
 79
     0
 47
0.1095052059876858
 98
        2
 10
612.5667754199762
 20
437.753234641164
 10
615.306447331473
 20
438.1912570152818
  0
HATCH
  5
8C4C
330
17
100
AcDbEntity
  8
M01
100
AcDbHatch
 10
0.0
 20
0.0
 30
0.0
210
0.0
220
0.0
230
1.0
  2
ANSI31
 70
     0
 71
     0
 91
        2
 92
        7
 72
     0
 73
     1
 93
        4
 10
614.580952208133
 20
442.0365163057131
 10
612.0809522081331
 20
441.3666433246354
 10
612.080952208133
 20
416.3459687483062
 10
614.580952208133
 20
416.3459687483063
 97
        0
 92
        7
 72
     0
 73
     1
 93
        4
 10
617.0809522081331
 20
442.7063892867909
 10
614.580952208133
 20
442.0365163057131
 10
614.580952208133
 20
416.3459687483063
 10
617.0809522081331
 20
416.3459687483065
 97
        0
 75
     0
 76
     1
 52
90.0
 41
10.0
 77
     0
 78
     1
 53
135.0
 43
543.4833765754189
 44
409.2077421121927
 45
-0.8838834764831844
 46
-0.8838834764831842
 79
     0
 47
0.1095052059876858
 98
        2
 10
613.1147110221063
 20
434.4680795629679
 10
615.5256234020703
 20
434.6870897709737
  0
ARC
  5
8D52
330
17
100
AcDbEntity
  8
M01
100
AcDbCircle
 10
628.3809522081333
 20
351.7835076614048
 30
0.0
 40
20.0
100
AcDbArc
 50
160.1488411351239
 51
163.8115125427529
  0
ARC
  5
8D53
330
17
100
AcDbEntity
  8
M01
100
AcDbCircle
 10
628.380952208133
 20
351.7835076614041
 30
0.0
 40
24.0
100
AcDbArc
 50
160.1488411351242
 51
166.5656071099218
  0
ARC
  5
8DBD
330
17
100
AcDbEntity
  8
0
100
AcDbCircle
 10
499.3574011414088
 20
318.3594705992558
 30
0.0
 40
31.75
100
AcDbArc
 50
129.0443134691176
 51
50.95568653088319
  0
LINE
  5
8DC1
330
17
100
AcDbEntity
  8
0
100
AcDbLine
 10
519.3574011414086
 20
343.0183939334164
 30
0.0
 11
519.3574011414086
 21
355.3594705992558
 31
0.0
  0
LINE
  5
8DC3
330
17
100
AcDbEntity
  8
0
100
AcDbLine
 10
479.3574011414084
 20
355.3594705992558
 30
0.0
 11
479.3574011414087
 21
343.0183939334161
 31
0.0
  0
ARC
  5
8DC7
330
17
100
AcDbEntity
  8
M01
100
AcDbCircle
 10
499.3574011414088
 20
318.3594705992558
 30
0.0
 40
28.47300000000008
100
AcDbArc
 50
112.7263896637251
 51
67.27361033627544
  0
LINE
  5
8DCE
330
17
100
AcDbEntity
  8
0
100
AcDbLine
 10
516.3574011414087
 20
358.3594705992558
 30
0.0
 11
508.8524011414086
 21
358.3594705992558
 31
0.0
  0
ARC
  5
8DCF
330
17
100
AcDbEntity
  8
0
100
AcDbCircle
 10
516.3574011414087
 20
355.3594705992558
 30
0.0
 40
3.0
100
AcDbArc
 50
0.0
 51
89.99999999999991
  0
ARC
  5
8DD0
330
17
100
AcDbEntity
  8
0
100
AcDbCircle
 10
482.3574011414083
 20
355.3594705992559
 30
0.0
 40
3.0
100
AcDbArc
 50
89.99999999999991
 51
180.0000000000013
  0
LINE
  5
8DD1
330
17
100
AcDbEntity
  8
0
 62
     1
100
AcDbLine
 10
510.3574011414088
 20
344.6218339544454
 30
0.0
 11
510.3574011414087
 21
357.3594705992558
 31
0.0
  0
LINE
  5
8DD2
330
17
100
AcDbEntity
  8
0
 62
     1
100
AcDbLine
 10
510.3574011414087
 20
357.3594705992558
 30
0.0
 11
509.3574011414087
 21
357.3594705992558
 31
0.0
  0
LINE
  5
8DD3
330
17
100
AcDbEntity
  8
0
 62
     1
100
AcDbLine
 10
509.3574011414087
 20
357.3594705992558
 30
0.0
 11
509.3574011414087
 21
343.9478611113613
 31
0.0
  0
LINE
  5
8DD4
330
17
100
AcDbEntity
  8
0
 62
     1
100
AcDbLine
 10
489.3574011414087
 20
343.9478611113611
 30
0.0
 11
489.3574011414087
 21
357.3594705992558
 31
0.0
  0
LINE
  5
8DD5
330
17
100
AcDbEntity
  8
0
 62
     1
100
AcDbLine
 10
489.3574011414087
 20
357.3594705992558
 30
0.0
 11
488.3574011414087
 21
357.3594705992558
 31
0.0
  0
LINE
  5
8DD6
330
17
100
AcDbEntity
  8
0
 62
     1
100
AcDbLine
 10
488.3574011414087
 20
357.3594705992558
 30
0.0
 11
488.3574011414087
 21
344.6218339544454
 31
0.0
  0
LINE
  5
8DDC
330
17
100
AcDbEntity
  8
0
 62
     1
100
AcDbLine
 10
513.3574011414087
 20
347.3594705992558
 30
0.0
 11
513.3574011414086
 21
357.3594705992558
 31
0.0
  0
LINE
  5
8DDD
330
17
100
AcDbEntity
  8
0
 62
     1
100
AcDbLine
 10
510.3574011414087
 20
357.3594705992558
 30
0.0
 11
513.3574011414086
 21
357.3594705992558
 31
0.0
  0
LINE
  5
8DDE
330
17
100
AcDbEntity
  8
0
 62
     1
100
AcDbLine
 10
510.3574011414088
 20
347.3594705992558
 30
0.0
 11
513.3574011414087
 21
347.3594705992558
 31
0.0
  0
LINE
  5
8DDF
330
17
100
AcDbEntity
  8
0
 62
     1
100
AcDbLine
 10
489.3574011414087
 20
354.3594705992559
 30
0.0
 11
497.3574011414086
 21
354.3594705992558
 31
0.0
  0
LINE
  5
8DE0
330
17
100
AcDbEntity
  8
0
 62
     1
100
AcDbLine
 10
489.3574011414087
 20
350.3594705992559
 30
0.0
 11
497.3574011414087
 21
350.3594705992558
 31
0.0
  0
LINE
  5
8DE1
330
17
100
AcDbEntity
  8
0
 62
     1
100
AcDbLine
 10
513.3574011414086
 20
354.3594705992558
 30
0.0
 11
516.3574011414087
 21
354.3594705992558
 31
0.0
  0
LINE
  5
8DE2
330
17
100
AcDbEntity
  8
0
 62
     1
100
AcDbLine
 10
516.3574011414087
 20
354.3594705992558
 30
0.0
 11
516.3574011414087
 21
350.3594705992558
 31
0.0
  0
LINE
  5
8DE3
330
17
100
AcDbEntity
  8
0
 62
     1
100
AcDbLine
 10
516.3574011414087
 20
350.3594705992558
 30
0.0
 11
513.3574011414087
 21
350.3594705992558
 31
0.0
  0
LINE
  5
8DE7
330
17
100
AcDbEntity
  8
0
 62
     1
100
AcDbLine
 10
488.3574011414087
 20
355.8594705992559
 30
0.0
 11
484.3574011414087
 21
355.8594705992559
 31
0.0
  0
LINE
  5
8DE8
330
17
100
AcDbEntity
  8
0
 62
     1
100
AcDbLine
 10
484.3574011414087
 20
355.8594705992559
 30
0.0
 11
484.3574011414087
 21
348.8594705992559
 31
0.0
  0
LINE
  5
8DE9
330
17
100
AcDbEntity
  8
0
 62
     1
100
AcDbLine
 10
484.3574011414087
 20
348.8594705992559
 30
0.0
 11
488.3574011414087
 21
348.8594705992559
 31
0.0
  0
CIRCLE
  5
8DEF
330
17
100
AcDbEntity
  8
0
 62
     1
100
AcDbCircle
 10
499.3574011414088
 20
318.3594705992558
 30
0.0
 40
27.47300000000007
  0
LINE
  5
8DF7
330
17
100
AcDbEntity
  8
0
100
AcDbLine
 10
603.6006858538341
 20
286.6094705992558
 30
0.0
 11
617.405952208133
 21
286.6094705992558
 31
0.0
  0
LINE
  5
8DF8
330
17
100
AcDbEntity
  8
0
100
AcDbLine
 10
600.6006858538341
 20
292.3594705992558
 30
0.0
 11
600.6006858538341
 21
289.6094705992558
 31
0.0
  0
ARC
  5
8DF9
330
17
100
AcDbEntity
  8
0
100
AcDbCircle
 10
603.6006858538341
 20
289.6094705992558
 30
0.0
 40
3.0
100
AcDbArc
 50
180.0
 51
270.0
  0
LINE
  5
8DFA
102
{ACAD_REACTORS
330
8E46
102
}
330
17
100
AcDbEntity
  8
M01
100
AcDbLine
 10
612.3809522081333
 20
344.6894705992558
 30
0.0
 11
612.3809522081333
 21
342.4894705992558
 31
0.0
  0
LINE
  5
8DFB
102
{ACAD_REACTORS
330
8E46
102
}
330
17
100
AcDbEntity
  8
M01
100
AcDbLine
 10
616.3809522081334
 20
345.6894705992559
 30
0.0
 11
616.3809522081333
 21
342.4894705992558
 31
0.0
  0
LINE
  5
8DFC
102
{ACAD_REACTORS
330
8E46
102
}
330
17
100
AcDbEntity
  8
M01
100
AcDbLine
 10
616.3809522081333
 20
344.6894705992558
 30
0.0
 11
604.3809522081329
 21
344.6894705992558
 31
0.0
  0
LINE
  5
8DFE
330
17
100
AcDbEntity
  8
M01
100
AcDbLine
 10
616.3809522081333
 20
345.6894705992558
 30
0.0
 11
604.3809522081329
 21
345.6894705992559
 31
0.0
  0
LINE
  5
8DFF
102
{ACAD_REACTORS
330
8E46
102
}
330
17
100
AcDbEntity
  8
M01
100
AcDbLine
 10
608.3809522081333
 20
344.6894705992558
 30
0.0
 11
608.3809522081333
 21
342.4894705992559
 31
0.0
  0
LINE
  5
8E00
102
{ACAD_REACTORS
330
8E46
102
}
330
17
100
AcDbEntity
  8
M01
100
AcDbLine
 10
616.3809522081335
 20
292.029470599256
 30
0.0
 11
604.3809522081332
 21
292.0294705992558
 31
0.0
  0
LINE
  5
8E01
330
17
100
AcDbEntity
  8
M01
100
AcDbLine
 10
616.3809522081335
 20
291.0294705992559
 30
0.0
 11
604.3809522081332
 21
291.0294705992558
 31
0.0
  0
LINE
  5
8E02
102
{ACAD_REACTORS
330
8E46
102
}
330
17
100
AcDbEntity
  8
M01
100
AcDbLine
 10
608.3809522081335
 20
292.0294705992559
 30
0.0
 11
608.3809522081335
 21
294.2294705992558
 31
0.0
  0
LINE
  5
8E03
102
{ACAD_REACTORS
330
8E46
102
}
330
17
100
AcDbEntity
  8
M01
100
AcDbLine
 10
612.3809522081335
 20
292.0294705992559
 30
0.0
 11
612.3809522081335
 21
294.2294705992558
 31
0.0
  0
LINE
  5
8E04
102
{ACAD_REACTORS
330
8E46
102
}
330
17
100
AcDbEntity
  8
M01
100
AcDbLine
 10
616.3809522081335
 20
291.029470599256
 30
0.0
 11
616.3809522081335
 21
294.2294705992558
 31
0.0
  0
LINE
  5
8E05
102
{ACAD_REACTORS
330
8E46
102
}
330
17
100
AcDbEntity
  8
M01
100
AcDbLine
 10
604.3809522081335
 20
291.0294705992558
 30
0.0
 11
604.3809522081335
 21
294.2294705992558
 31
0.0
  0
LINE
  5
8E06
330
17
100
AcDbEntity
  8
0
100
AcDbLine
 10
603.6006858538341
 20
350.109470599256
 30
0.0
 11
604.3809522081332
 21
350.109470599256
 31
0.0
  0
LINE
  5
8E07
330
17
100
AcDbEntity
  8
0
100
AcDbLine
 10
600.6006858538341
 20
342.4894705992558
 30
0.0
 11
600.6006858538341
 21
355.3594705992558
 31
0.0
  0
ARC
  5
8E08
330
17
100
AcDbEntity
  8
0
100
AcDbCircle
 10
603.6006858538341
 20
347.1094705992559
 30
0.0
 40
3.0
100
AcDbArc
 50
90.00000000000003
 51
180.0
  0
LINE
  5
8E09
330
17
100
AcDbEntity
  8
0
100
AcDbLine
 10
616.3809522081333
 20
350.1094705992559
 30
0.0
 11
617.405952208133
 21
350.109470599256
 31
0.0
  0
LINE
  5
8E0C
330
17
100
AcDbEntity
  8
0
100
AcDbLine
 10
603.6006858538341
 20
358.3594705992558
 30
0.0
 11
605.2994290469549
 21
358.3594705992558
 31
0.0
  0
ARC
  5
8E0D
330
17
100
AcDbEntity
  8
0
100
AcDbCircle
 10
603.6006858538341
 20
355.3594705992558
 30
0.0
 40
3.0
100
AcDbArc
 50
90.0
 51
180.0
  0
LINE
  5
8E0E
330
17
100
AcDbEntity
  8
0
100
AcDbLine
 10
609.4929477756896
 20
358.3594705992558
 30
0.0
 11
617.4059522081331
 21
358.3594705992558
 31
0.0
  0
LINE
  5
8E10
330
17
100
AcDbEntity
  8
0
 62
     1
100
AcDbLine
 10
616.3809522081335
 20
357.3594705992558
 30
0.0
 11
604.380952208133
 21
357.3594705992557
 31
0.0
  0
LINE
  5
8E11
330
17
100
AcDbEntity
  8
0
 62
     1
100
AcDbLine
 10
616.3809522081334
 20
345.6894705992559
 30
0.0
 11
616.3809522081334
 21
357.3594705992558
 31
0.0
  0
CIRCLE
  5
8E16
330
17
100
AcDbEntity
  8
0
 62
     1
100
AcDbCircle
 10
610.3809522081332
 20
352.3594705992558
 30
0.0
 40
4.5
  0
CIRCLE
  5
8E17
330
17
100
AcDbEntity
  8
0
 62
     1
100
AcDbCircle
 10
610.3809522081332
 20
352.3594705992558
 30
0.0
 40
2.0
  0
HATCH
  5
8E46
330
17
100
AcDbEntity
  8
0
 62
     1
100
AcDbHatch
 10
0.0
 20
0.0
 30
0.0
210
0.0
220
0.0
230
1.0
  2
ANSI31
 70
     0
 71
     1
 91
        6
 92
        7
 72
     0
 73
     1
 93
        4
 10
608.3809522081333
 20
344.6894705992558
 10
604.380952208133
 20
344.6894705992558
 10
604.380952208133
 20
342.4894705992558
 10
608.3809522081333
 20
342.4894705992558
 97
        4
330
8DFC
330
8B09
330
8AF6
330
8DFF
 92
        7
 72
     0
 73
     1
 93
        4
 10
612.3809522081333
 20
344.6894705992558
 10
608.3809522081333
 20
344.6894705992558
 10
608.3809522081333
 20
342.4894705992558
 10
612.3809522081333
 20
342.4894705992558
 97
        4
330
8DFC
330
8DFF
330
8AF6
330
8DFA
 92
        7
 72
     0
 73
     1
 93
        5
 10
616.3809522081333
 20
342.4894705992558
 10
616.3809522081334
 20
344.6894705992558
 10
612.3809522081333
 20
344.6894705992558
 10
612.3809522081333
 20
342.4894705992558
 10
614.9059522081331
 20
342.4894705992558
 97
        5
330
8DFC
330
8DFA
330
8AF6
330
8AE7
330
8DFB
 92
        7
 72
     0
 73
     1
 93
        4
 10
608.3809522081335
 20
294.2294705992558
 10
604.3809522081335
 20
294.2294705992558
 10
604.3809522081335
 20
292.0294705992558
 10
608.3809522081335
 20
292.0294705992558
 97
        4
330
8AF5
330
8E05
330
8E00
330
8E02
 92
        7
 72
     0
 73
     1
 93
        4
 10
612.3809522081335
 20
294.2294705992559
 10
608.3809522081335
 20
294.2294705992559
 10
608.3809522081335
 20
292.0294705992558
 10
612.3809522081335
 20
292.0294705992559
 97
        4
330
8AF5
330
8E02
330
8E00
330
8E03
 92
        7
 72
     0
 73
     1
 93
        5
 10
616.3809522081335
 20
292.029470599256
 10
616.3809522081335
 20
294.2294705992558
 10
614.905952208133
 20
294.2294705992558
 10
612.3809522081335
 20
294.2294705992558
 10
612.3809522081335
 20
292.0294705992559
 97
        5
330
8AE8
330
8AF5
330
8E03
330
8E00
330
8E04
 75
     0
 76
     1
 52
90.0
 41
5.0
 77
     0
 78
     1
 53
135.0
 43
543.4833765754189
 44
409.2077421121927
 45
-0.4419417382415923
 46
-0.4419417382415922
 79
     0
 47
0.218101635078581
 98
        6
 10
606.7673371091914
 20
343.5006358480994
 10
609.6047422200281
 20
343.7187340605985
 10
613.5334735372053
 20
343.7187340605985
 10
605.6760109028473
 20
292.9010445961583
 10
609.1682273831829
 20
293.1191554016594
 10
613.5334735372053
 20
293.1191554016594
  0
LINE
  5
8E69
330
17
100
AcDbEntity
  8
M01
100
AcDbLine
 10
506.3524011414086
 20
388.3459687483064
 30
0.0
 11
502.3624011414088
 21
388.3459687483064
 31
0.0
  0
LINE
  5
8E6A
330
17
100
AcDbEntity
  8
M01
100
AcDbLine
 10
507.8624011414088
 20
406.3459687483065
 30
0.0
 11
507.8624011414088
 21
416.3459687483066
 31
0.0
  0
LINE
  5
8E6B
330
17
100
AcDbEntity
  8
M01
100
AcDbLine
 10
506.3524011414086
 20
388.3459687483064
 30
0.0
 11
507.3624011414088
 21
398.2707119326385
 31
0.0
  0
LINE
  5
8E6C
330
17
100
AcDbEntity
  8
M01
100
AcDbLine
 10
500.8624011414086
 20
406.3459687483061
 30
0.0
 11
500.8624011414086
 21
416.3459687483062
 31
0.0
  0
LINE
  5
8E6D
330
17
100
AcDbEntity
  8
M01
100
AcDbLine
 10
502.3624011414089
 20
388.3459687483064
 30
0.0
 11
501.3624011414084
 21
398.270711932639
 31
0.0
  0
LINE
  5
8E6E
330
17
100
AcDbEntity
  8
M01
100
AcDbLine
 10
501.3624011414084
 20
398.270711932639
 30
0.0
 11
501.3624011414085
 21
406.3459687483064
 31
0.0
  0
LINE
  5
8E6F
330
17
100
AcDbEntity
  8
M01
100
AcDbLine
 10
507.3624011414088
 20
398.2707119326385
 30
0.0
 11
507.3624011414087
 21
406.3459687483064
 31
0.0
  0
LINE
  5
8E70
330
17
100
AcDbEntity
  8
M01
100
AcDbLine
 10
501.3624011414084
 20
398.270711932639
 30
0.0
 11
507.3624011414088
 21
398.2707119326385
 31
0.0
  0
LINE
  5
8E71
330
17
100
AcDbEntity
  8
M01
100
AcDbLine
 10
507.8624011414088
 20
406.3459687483065
 30
0.0
 11
500.8624011414086
 21
406.3459687483061
 31
0.0
  0
LINE
  5
8E72
330
17
100
AcDbEntity
  8
0
 62
     1
100
AcDbLine
 10
508.8524011414087
 20
362.9395343040654
 30
0.0
 11
508.8524011414084
 21
344.1395152850203
 31
0.0
  0
LINE
  5
8E73
330
17
100
AcDbEntity
  8
0
 62
     1
100
AcDbLine
 10
504.8624011414088
 20
362.5615899616181
 30
0.0
 11
504.8624011414089
 21
345.2752782965924
 31
0.0
  0
LINE
  5
8E76
330
17
100
AcDbEntity
  8
M01
100
AcDbLine
 10
501.8624011414089
 20
441.3666433246354
 30
0.0
 11
501.8624011414088
 21
416.3459687483062
 31
0.0
  0
LINE
  5
8E77
330
17
100
AcDbEntity
  8
M01
100
AcDbLine
 10
506.8624011414089
 20
442.706389286791
 30
0.0
 11
506.8624011414089
 21
416.3459687483065
 31
0.0
  0
HATCH
  5
8E78
330
17
100
AcDbEntity
  8
M01
100
AcDbHatch
 10
0.0
 20
0.0
 30
0.0
210
0.0
220
0.0
230
1.0
  2
ANSI31
 70
     0
 71
     0
 91
        2
 92
        7
 72
     0
 73
     1
 93
        4
 10
504.3624011414088
 20
442.0365163057132
 10
501.8624011414089
 20
441.3666433246354
 10
501.8624011414088
 20
416.3459687483062
 10
504.3624011414087
 20
416.3459687483063
 97
        0
 92
        7
 72
     0
 73
     1
 93
        4
 10
506.8624011414089
 20
442.706389286791
 10
504.3624011414088
 20
442.0365163057132
 10
504.3624011414087
 20
416.3459687483063
 10
506.8624011414089
 20
416.3459687483065
 97
        0
 75
     0
 76
     1
 52
0.0
 41
10.0
 77
     0
 78
     1
 53
45.0
 43
433.2648255086946
 44
409.2077421121928
 45
-0.8838834764831842
 46
0.8838834764831844
 79
     0
 47
0.1095052059876858
 98
        2
 10
502.3482243532519
 20
437.7532346411641
 10
505.0878962647487
 20
438.1912570152818
  0
HATCH
  5
8E79
330
17
100
AcDbEntity
  8
M01
100
AcDbHatch
 10
0.0
 20
0.0
 30
0.0
210
0.0
220
0.0
230
1.0
  2
ANSI31
 70
     0
 71
     0
 91
        2
 92
        7
 72
     0
 73
     1
 93
        4
 10
504.3624011414088
 20
442.0365163057132
 10
501.8624011414089
 20
441.3666433246354
 10
501.8624011414088
 20
416.3459687483062
 10
504.3624011414087
 20
416.3459687483063
 97
        0
 92
        7
 72
     0
 73
     1
 93
        4
 10
506.8624011414089
 20
442.706389286791
 10
504.3624011414088
 20
442.0365163057132
 10
504.3624011414087
 20
416.3459687483063
 10
506.8624011414089
 20
416.3459687483065
 97
        0
 75
     0
 76
     1
 52
90.0
 41
10.0
 77
     0
 78
     1
 53
135.0
 43
433.2648255086946
 44
409.2077421121928
 45
-0.8838834764831844
 46
-0.8838834764831842
 79
     0
 47
0.1095052059876858
 98
        2
 10
502.8961599553821
 20
434.4680795629679
 10
505.3070723353461
 20
434.6870897709737
  0
LINE
  5
8E7A
330
17
100
AcDbEntity
  8
0
 62
     1
100
AcDbLine
 10
500.8624011414086
 20
416.3459687483062
 30
0.0
 11
507.8624011414088
 21
416.3459687483066
 31
0.0
  0
LINE
  5
8E7E
330
17
100
AcDbEntity
  8
0
100
AcDbLine
 10
509.3574011414085
 20
358.3594705992559
 30
0.0
 11
509.3574011414085
 21
451.6862200544552
 31
0.0
  0
LINE
  5
8E7F
330
17
100
AcDbEntity
  8
0
100
AcDbLine
 10
489.3574011414085
 20
358.3594705992559
 30
0.0
 11
489.3574011414085
 21
451.6862200544552
 31
0.0
  0
LINE
  5
8E82
330
17
100
AcDbEntity
  8
0
 62
     1
100
AcDbLine
 10
506.3524011414086
 20
388.3459687483064
 30
0.0
 11
506.352401141409
 21
380.297947227244
 31
0.0
  0
LINE
  5
8E83
330
17
100
AcDbEntity
  8
0
 62
     1
100
AcDbLine
 10
502.3624011414089
 20
388.3459687483064
 30
0.0
 11
502.3624011414088
 21
380.2348097120972
 31
0.0
  0
LINE
  5
8E85
330
17
100
AcDbEntity
  8
0
 62
     1
100
AcDbLine
 10
502.6578809671255
 20
376.4803825511316
 30
0.0
 11
504.8624011414088
 21
362.5615899616183
 31
0.0
  0
LINE
  5
8E86
330
17
100
AcDbEntity
  8
0
 62
     1
100
AcDbLine
 10
506.5986343295062
 20
377.1692579264399
 30
0.0
 11
508.8524011414087
 21
362.939534304065
 31
0.0
  0
LINE
  5
8E89
330
17
100
AcDbEntity
  8
0
100
AcDbLine
 10
504.8624011414089
 20
358.3594705992558
 30
0.0
 11
501.3474011414086
 21
358.3594705992559
 31
0.0
  0
LINE
  5
8E8A
330
17
100
AcDbEntity
  8
0
 62
     1
100
AcDbLine
 10
501.3474011414086
 20
362.939534304065
 30
0.0
 11
501.3474011414086
 21
345.7603032325902
 31
0.0
  0
LINE
  5
8E8B
330
17
100
AcDbEntity
  8
M01
100
AcDbLine
 10
498.8474011414085
 20
388.3459687483064
 30
0.0
 11
494.8574011414087
 21
388.3459687483064
 31
0.0
  0
LINE
  5
8E8C
330
17
100
AcDbEntity
  8
M01
100
AcDbLine
 10
500.3574011414087
 20
406.3459687483065
 30
0.0
 11
500.3574011414087
 21
416.3459687483066
 31
0.0
  0
LINE
  5
8E8D
330
17
100
AcDbEntity
  8
M01
100
AcDbLine
 10
498.8474011414085
 20
388.3459687483064
 30
0.0
 11
499.8574011414087
 21
398.2707119326385
 31
0.0
  0
LINE
  5
8E8E
330
17
100
AcDbEntity
  8
M01
100
AcDbLine
 10
493.3574011414085
 20
406.3459687483061
 30
0.0
 11
493.3574011414085
 21
416.3459687483062
 31
0.0
  0
LINE
  5
8E8F
330
17
100
AcDbEntity
  8
M01
100
AcDbLine
 10
494.8574011414088
 20
388.3459687483064
 30
0.0
 11
493.8574011414083
 21
398.270711932639
 31
0.0
  0
LINE
  5
8E90
330
17
100
AcDbEntity
  8
M01
100
AcDbLine
 10
493.8574011414083
 20
398.270711932639
 30
0.0
 11
493.8574011414084
 21
406.3459687483064
 31
0.0
  0
LINE
  5
8E91
330
17
100
AcDbEntity
  8
M01
100
AcDbLine
 10
499.8574011414087
 20
398.2707119326385
 30
0.0
 11
499.8574011414085
 21
406.3459687483064
 31
0.0
  0
LINE
  5
8E92
330
17
100
AcDbEntity
  8
M01
100
AcDbLine
 10
493.8574011414083
 20
398.270711932639
 30
0.0
 11
499.8574011414087
 21
398.2707119326385
 31
0.0
  0
LINE
  5
8E93
330
17
100
AcDbEntity
  8
M01
100
AcDbLine
 10
500.3574011414087
 20
406.3459687483065
 30
0.0
 11
493.3574011414085
 21
406.3459687483061
 31
0.0
  0
LINE
  5
8E94
330
17
100
AcDbEntity
  8
0
 62
     1
100
AcDbLine
 10
497.3574011414087
 20
362.5615899616181
 30
0.0
 11
497.3574011414087
 21
345.7595751428521
 31
0.0
  0
LINE
  5
8E95
330
17
100
AcDbEntity
  8
M01
100
AcDbLine
 10
494.3574011414088
 20
441.3666433246354
 30
0.0
 11
494.3574011414086
 21
416.3459687483062
 31
0.0
  0
LINE
  5
8E96
330
17
100
AcDbEntity
  8
M01
100
AcDbLine
 10
499.3574011414088
 20
442.706389286791
 30
0.0
 11
499.3574011414088
 21
416.3459687483065
 31
0.0
  0
HATCH
  5
8E97
330
17
100
AcDbEntity
  8
M01
100
AcDbHatch
 10
0.0
 20
0.0
 30
0.0
210
0.0
220
0.0
230
1.0
  2
ANSI31
 70
     0
 71
     0
 91
        2
 92
        7
 72
     0
 73
     1
 93
        4
 10
496.8574011414087
 20
442.0365163057132
 10
494.3574011414088
 20
441.3666433246354
 10
494.3574011414086
 20
416.3459687483062
 10
496.8574011414086
 20
416.3459687483063
 97
        0
 92
        7
 72
     0
 73
     1
 93
        4
 10
499.3574011414088
 20
442.706389286791
 10
496.8574011414087
 20
442.0365163057132
 10
496.8574011414086
 20
416.3459687483063
 10
499.3574011414088
 20
416.3459687483065
 97
        0
 75
     0
 76
     1
 52
0.0
 41
10.0
 77
     0
 78
     1
 53
45.0
 43
425.7598255086946
 44
409.2077421121928
 45
-0.8838834764831842
 46
0.8838834764831844
 79
     0
 47
0.1095052059876858
 98
        2
 10
494.8432243532518
 20
437.7532346411641
 10
497.5828962647486
 20
438.1912570152818
  0
HATCH
  5
8E98
330
17
100
AcDbEntity
  8
M01
100
AcDbHatch
 10
0.0
 20
0.0
 30
0.0
210
0.0
220
0.0
230
1.0
  2
ANSI31
 70
     0
 71
     0
 91
        2
 92
        7
 72
     0
 73
     1
 93
        4
 10
496.8574011414087
 20
442.0365163057132
 10
494.3574011414088
 20
441.3666433246354
 10
494.3574011414086
 20
416.3459687483062
 10
496.8574011414086
 20
416.3459687483063
 97
        0
 92
        7
 72
     0
 73
     1
 93
        4
 10
499.3574011414088
 20
442.706389286791
 10
496.8574011414087
 20
442.0365163057132
 10
496.8574011414086
 20
416.3459687483063
 10
499.3574011414088
 20
416.3459687483065
 97
        0
 75
     0
 76
     1
 52
90.0
 41
10.0
 77
     0
 78
     1
 53
135.0
 43
425.7598255086946
 44
409.2077421121928
 45
-0.8838834764831844
 46
-0.8838834764831842
 79
     0
 47
0.1095052059876858
 98
        2
 10
495.391159955382
 20
434.4680795629679
 10
497.8020723353459
 20
434.6870897709737
  0
LINE
  5
8E99
330
17
100
AcDbEntity
  8
0
 62
     1
100
AcDbLine
 10
493.3574011414085
 20
416.3459687483062
 30
0.0
 11
500.3574011414087
 21
416.3459687483066
 31
0.0
  0
LINE
  5
8E9A
330
17
100
AcDbEntity
  8
0
 62
     1
100
AcDbLine
 10
498.8474011414085
 20
388.3459687483064
 30
0.0
 11
498.8474011414089
 21
380.2979472272436
 31
0.0
  0
LINE
  5
8E9B
330
17
100
AcDbEntity
  8
0
 62
     1
100
AcDbLine
 10
494.8574011414088
 20
388.3459687483064
 30
0.0
 11
494.8574011414088
 21
380.2348097120966
 31
0.0
  0
LINE
  5
8E9C
330
17
100
AcDbEntity
  8
0
 62
     1
100
AcDbLine
 10
495.1528809671255
 20
376.480382551131
 30
0.0
 11
497.3574011414087
 21
362.5615899616183
 31
0.0
  0
LINE
  5
8E9D
330
17
100
AcDbEntity
  8
0
 62
     1
100
AcDbLine
 10
499.0936343295061
 20
377.1692579264395
 30
0.0
 11
501.3474011414086
 21
362.939534304065
 31
0.0
  0
LINE
  5
8E9E
330
17
100
AcDbEntity
  8
0
100
AcDbLine
 10
497.3574011414087
 20
358.3594705992559
 30
0.0
 11
482.3574011414083
 21
358.3594705992559
 31
0.0
  0
ARC
  5
8EA2
330
17
100
AcDbEntity
  8
0
 62
     1
100
AcDbCircle
 10
526.352401141409
 20
380.2979472272446
 30
0.0
 40
20.0
100
AcDbArc
 50
180.0000000000015
 51
189.0
  0
ARC
  5
8EA3
330
17
100
AcDbEntity
  8
0
 62
     1
100
AcDbCircle
 10
518.8474011414089
 20
380.2979472272442
 30
0.0
 40
20.0
100
AcDbArc
 50
180.0000000000015
 51
189.0
  0
ARC
  5
8EA4
330
17
100
AcDbEntity
  8
0
 62
     1
100
AcDbCircle
 10
526.3624011414087
 20
380.2348097120971
 30
0.0
 40
24.0
100
AcDbArc
 50
179.9999999999996
 51
188.9999999999999
  0
ARC
  5
8EA5
330
17
100
AcDbEntity
  8
0
 62
     1
100
AcDbCircle
 10
518.8574011414088
 20
380.2348097120965
 30
0.0
 40
24.0
100
AcDbArc
 50
179.9999999999996
 51
188.9999999999999
  0
LINE
  5
8EA8
330
17
100
AcDbEntity
  8
0
 62
     1
100
AcDbLine
 10
508.8524011414086
 20
350.3594705992558
 30
0.0
 11
509.3574011414087
 21
350.3594705992558
 31
0.0
  0
LINE
  5
8EA9
330
17
100
AcDbEntity
  8
0
 62
     1
100
AcDbLine
 10
508.8524011414087
 20
354.3594705992559
 30
0.0
 11
509.3574011414087
 21
354.3594705992559
 31
0.0
  0
LINE
  5
8EAA
330
17
100
AcDbEntity
  8
0
 62
     1
100
AcDbLine
 10
501.3474011414086
 20
350.3594705992558
 30
0.0
 11
504.8624011414087
 21
350.3594705992558
 31
0.0
  0
LINE
  5
8EAB
330
17
100
AcDbEntity
  8
0
 62
     1
100
AcDbLine
 10
501.3474011414086
 20
354.3594705992559
 30
0.0
 11
504.8624011414088
 21
354.3594705992559
 31
0.0
  0
CIRCLE
  5
8EBD
330
17
100
AcDbEntity
  8
0
100
AcDbCircle
 10
612.4059522081331
 20
318.3594705992559
 30
0.0
 40
2.5
  0
MTEXT
  5
8EC1
330
17
100
AcDbEntity
  8
0
100
AcDbMText
 10
498.2049503638641
 20
246.3910134259803
 30
0.0
 40
4.0
 41
107.4
 71
     1
 72
     5
  1
{\LHB-4812FC-C for PSB750}
 73
     1
 44
1.0
  0
ENDSEC
  0
SECTION
  2
OBJECTS
  0
DICTIONARY
  5
C
330
0
100
AcDbDictionary
281
     1
  3
ACAD_GROUP
350
D
  3
ACAD_LAYOUT
350
8ABF
  3
ACAD_MLINESTYLE
350
1A
  3
ACAD_PLOTSETTINGS
350
8AC0
  3
ACAD_PLOTSTYLENAME
350
8ABD
  3
ACAD_WIPEOUT_VARS
350
4846
  3
ACDBVARIABLEDICTIONARY
350
33
  3
CONTENTDICTIONARY
350
1149
  0
DICTIONARY
  5
20BE
330
17
100
AcDbDictionary
280
     1
281
     1
  3
ACAD_SORTENTS
360
20BF
  0
DICTIONARY
  5
D
102
{ACAD_REACTORS
330
C
102
}
330
C
100
AcDbDictionary
281
     1
  3
*A1
350
484B
  3
*A2
350
484E
  3
*A3
350
6B86
  0
DICTIONARY
  5
8ABF
102
{ACAD_REACTORS
330
C
102
}
330
C
100
AcDbDictionary
281
     1
  3
Layout1
350
8AC2
  3
Model
350
8AC1
  0
DICTIONARY
  5
1A
102
{ACAD_REACTORS
330
C
102
}
330
C
100
AcDbDictionary
281
     1
  3
STANDARD
350
1B
  0
DICTIONARY
  5
8AC0
102
{ACAD_REACTORS
330
C
102
}
330
C
100
AcDbDictionary
281
     1
  0
ACDBDICTIONARYWDFLT
  5
8ABD
102
{ACAD_REACTORS
330
C
102
}
330
C
100
AcDbDictionary
281
     1
  3
Normal
350
8ABE
100
AcDbDictionaryWithDefault
340
8ABE
  0
ACAD_PROXY_OBJECT
  5
4846
102
{ACAD_REACTORS
330
C
102
}
330
C
100
AcDbProxyObject
 90
      499
 91
      504
 95
   589845
 70
     0
 93
        2
310
B4
 94
        0
  0
DICTIONARY
  5
33
102
{ACAD_REACTORS
330
C
102
}
330
C
100
AcDbDictionary
281
     1
  3
DIMADEC
350
34
  3
DIMASSOC
350
8AC5
  3
SORTENTS
350
1D6E
  0
DICTIONARY
  5
1149
102
{ACAD_REACTORS
330
C
102
}
330
C
100
AcDbDictionary
281
     1
  0
SORTENTSTABLE
  5
20BF
102
{ACAD_REACTORS
330
20BE
102
}
330
20BE
100
AcDbSortentsTable
330
17
  0
GROUP
  5
484B
102
{ACAD_REACTORS
330
D
102
}
330
D
100
AcDbGroup
300
In use by TEXTMASK
 70
     1
 71
     1
  0
GROUP
  5
484E
102
{ACAD_REACTORS
330
D
102
}
330
D
100
AcDbGroup
300

 70
     1
 71
     1
  0
GROUP
  5
6B86
102
{ACAD_REACTORS
330
D
102
}
330
D
100
AcDbGroup
300

 70
     1
 71
     1
  0
LAYOUT
  5
8AC2
102
{ACAD_REACTORS
330
8ABF
102
}
330
8ABF
100
AcDbPlotSettings
  1

  2
C:\PROGRAM FILES\AUTOCAD LT 2002\plotters\PublishToWeb DWF.pc3
  4

  6

 40
0.0
 41
0.0
 42
0.0
 43
0.0
 44
0.0
 45
0.0
 46
0.0
 47
0.0
 48
0.0
 49
0.0
140
0.0
141
0.0
142
1.0
143
1.0
 70
   688
 72
     0
 73
     0
 74
     5
  7

 75
    16
147
1.0
148
0.0
149
0.0
100
AcDbLayout
  1
Layout1
 70
     0
 71
     1
 10
0.0
 20
0.0
 11
12.0
 21
9.0
 12
0.0
 22
0.0
 32
0.0
 14
1.000000000000000E+20
 24
1.000000000000000E+20
 34
1.000000000000000E+20
 15
-1.000000000000000E+20
 25
-1.000000000000000E+20
 35
-1.000000000000000E+20
146
0.0
 13
0.0
 23
0.0
 33
0.0
 16
1.0
 26
0.0
 36
0.0
 17
0.0
 27
1.0
 37
0.0
 76
     0
330
14
  0
LAYOUT
  5
8AC1
102
{ACAD_REACTORS
330
8ABF
102
}
330
8ABF
100
AcDbPlotSettings
  1

  2
SHARP AR-C172M PCL5c
  4
A4
  6

 40
5.027083396911621
 41
5.027085304260253
 42
5.027084350585937
 43
5.027069091796875
 44
209.9733276367187
 45
296.9259948730469
 46
22.21999999999999
 47
38.34
 48
0.0
 49
0.0
140
0.0
141
0.0
142
1.0
143
1.0
 70
 11956
 72
     1
 73
     0
 74
     1
  7

 75
    16
147
1.0
148
-462.6025728869745
149
-241.5488151055165
100
AcDbLayout
  1
Model
 70
     1
 71
     0
 10
0.0
 20
0.0
 11
12.0
 21
9.0
 12
0.0
 22
0.0
 32
0.0
 14
0.0
 24
0.0
 34
0.0
 15
0.0
 25
0.0
 35
0.0
146
0.0
 13
0.0
 23
0.0
 33
0.0
 16
1.0
 26
0.0
 36
0.0
 17
0.0
 27
1.0
 37
0.0
 76
     0
330
17
  0
MLINESTYLE
  5
1B
102
{ACAD_REACTORS
330
1A
102
}
330
1A
100
AcDbMlineStyle
  2
STANDARD
 70
     0
  3

 62
   256
 51
90.0
 52
90.0
 71
     2
 49
0.5
 62
   256
  6
BYLAYER
 49
-0.5
 62
   256
  6
BYLAYER
  0
ACDBPLACEHOLDER
  5
8ABE
102
{ACAD_REACTORS
330
8ABD
102
}
330
8ABD
  0
DICTIONARYVAR
  5
34
102
{ACAD_REACTORS
330
33
102
}
330
33
100
DictionaryVariables
280
     0
  1
3
  0
DICTIONARYVAR
  5
8AC5
102
{ACAD_REACTORS
330
33
102
}
330
33
100
DictionaryVariables
280
     0
  1
1
  0
DICTIONARYVAR
  5
1D6E
102
{ACAD_REACTORS
330
33
102
}
330
33
100
DictionaryVariables
280
     0
  1
127
  0
ENDSEC
  0
EOF
