  0
SECTION
  2
HEADER
  9
$ACADVER
  1
AC1015
  9
$ACADMAINTVER
 70
    13
  9
$DWGCODEPAGE
  3
ANSI_1252
  9
$INSBASE
 10
0.0
 20
0.0
 30
0.0
  9
$EXTMIN
 10
454.3476442884975
 20
244.2436698449816
 30
-0.000000000000013
  9
$EXTMAX
 10
612.4612752905363
 20
554.6011063610217
 30
0.0000000000000023
  9
$LIMMIN
 10
0.0
 20
0.0
  9
$LIMMAX
 10
1189.0
 20
841.0
  9
$ORTHOMODE
 70
     0
  9
$REGENMODE
 70
     1
  9
$FILLMODE
 70
     1
  9
$QTEXTMODE
 70
     0
  9
$MIRRTEXT
 70
     0
  9
$LTSCALE
 40
8.0
  9
$ATTMODE
 70
     1
  9
$TEXTSIZE
 40
2.0
  9
$TRACEWID
 40
10.0
  9
$TEXTSTYLE
  7
STANDARD
  9
$CLAYER
  8
M01
  9
$CELTYPE
  6
BYLAYER
  9
$CECOLOR
 62
   256
  9
$CELTSCALE
 40
1.0
  9
$DISPSILH
 70
     0
  9
$DIMSCALE
 40
1.0
  9
$DIMASZ
 40
3.0
  9
$DIMEXO
 40
1.0
  9
$DIMDLI
 40
10.0
  9
$DIMRND
 40
0.01
  9
$DIMDLE
 40
1.25
  9
$DIMEXE
 40
2.5
  9
$DIMTP
 40
0.05
  9
$DIMTM
 40
0.0
  9
$DIMTXT
 40
3.0
  9
$DIMCEN
 40
-1.7
  9
$DIMTSZ
 40
0.0
  9
$DIMTOL
 70
     0
  9
$DIMLIM
 70
     0
  9
$DIMTIH
 70
     0
  9
$DIMTOH
 70
     0
  9
$DIMSE1
 70
     0
  9
$DIMSE2
 70
     0
  9
$DIMTAD
 70
     3
  9
$DIMZIN
 70
     1
  9
$DIMBLK
  1

  9
$DIMASO
 70
     1
  9
$DIMSHO
 70
     0
  9
$DIMPOST
  1

  9
$DIMAPOST
  1

  9
$DIMALT
 70
     0
  9
$DIMALTD
 70
     2
  9
$DIMALTF
 40
0.039
  9
$DIMLFAC
 40
1.0
  9
$DIMTOFL
 70
     0
  9
$DIMTVP
 40
1.5
  9
$DIMTIX
 70
     0
  9
$DIMSOXD
 70
     0
  9
$DIMSAH
 70
     0
  9
$DIMBLK1
  1

  9
$DIMBLK2
  1

  9
$DIMSTYLE
  2
DIM1
  9
$DIMCLRD
 70
     4
  9
$DIMCLRE
 70
     4
  9
$DIMCLRT
 70
     2
  9
$DIMTFAC
 40
0.7
  9
$DIMGAP
 40
1.5
  9
$DIMJUST
 70
     0
  9
$DIMSD1
 70
     0
  9
$DIMSD2
 70
     0
  9
$DIMTOLJ
 70
     1
  9
$DIMTZIN
 70
     1
  9
$DIMALTZ
 70
     1
  9
$DIMALTTZ
 70
     1
  9
$DIMUPT
 70
     0
  9
$DIMDEC
 70
     2
  9
$DIMTDEC
 70
     2
  9
$DIMALTU
 70
     2
  9
$DIMALTTD
 70
     2
  9
$DIMTXSTY
  7
STANDARD
  9
$DIMAUNIT
 70
     0
  9
$DIMADEC
 70
     0
  9
$DIMALTRND
 40
0.0
  9
$DIMAZIN
 70
     0
  9
$DIMDSEP
 70
    46
  9
$DIMATFIT
 70
     0
  9
$DIMFRAC
 70
     0
  9
$DIMLDRBLK
  1

  9
$DIMLUNIT
 70
     2
  9
$DIMLWD
 70
    -2
  9
$DIMLWE
 70
    -2
  9
$DIMTMOVE
 70
     0
  9
$LUNITS
 70
     2
  9
$LUPREC
 70
     2
  9
$SKETCHINC
 40
1.0
  9
$FILLETRAD
 40
24.0
  9
$AUNITS
 70
     0
  9
$AUPREC
 70
     3
  9
$MENU
  1
ACAD
  9
$ELEVATION
 40
0.0
  9
$PELEVATION
 40
0.0
  9
$THICKNESS
 40
0.0
  9
$LIMCHECK
 70
     0
  9
$CHAMFERA
 40
0.76
  9
$CHAMFERB
 40
0.76
  9
$CHAMFERC
 40
0.0
  9
$CHAMFERD
 40
0.0
  9
$SKPOLY
 70
     1
  9
$TDCREATE
 40
2449993.725698611
  9
$TDUCREATE
 40
2449993.725698611
  9
$TDUPDATE
 40
2455244.704504571
  9
$TDUUPDATE
 40
2455244.704504571
  9
$TDINDWG
 40
1.8581797222
  9
$TDUSRTIMER
 40
1.8581797222
  9
$USRTIMER
 70
     1
  9
$ANGBASE
 50
0.0
  9
$ANGDIR
 70
     0
  9
$PDMODE
 70
     3
  9
$PDSIZE
 40
0.0
  9
$PLINEWID
 40
0.0
  9
$SPLFRAME
 70
     0
  9
$SPLINETYPE
 70
     6
  9
$SPLINESEGS
 70
     6
  9
$HANDSEED
  5
91EF
  9
$SURFTAB1
 70
    12
  9
$SURFTAB2
 70
    12
  9
$SURFTYPE
 70
     6
  9
$SURFU
 70
    12
  9
$SURFV
 70
    12
  9
$UCSBASE
  2

  9
$UCSNAME
  2

  9
$UCSORG
 10
578.4833765754188
 20
409.2077421121927
 30
0.0
  9
$UCSXDIR
 10
1.0
 20
0.0
 30
0.0
  9
$UCSYDIR
 10
0.0
 20
1.0
 30
0.0
  9
$UCSORTHOREF
  2

  9
$UCSORTHOVIEW
 70
     0
  9
$UCSORGTOP
 10
0.0
 20
0.0
 30
0.0
  9
$UCSORGBOTTOM
 10
0.0
 20
0.0
 30
0.0
  9
$UCSORGLEFT
 10
0.0
 20
0.0
 30
0.0
  9
$UCSORGRIGHT
 10
0.0
 20
0.0
 30
0.0
  9
$UCSORGFRONT
 10
0.0
 20
0.0
 30
0.0
  9
$UCSORGBACK
 10
0.0
 20
0.0
 30
0.0
  9
$PUCSBASE
  2

  9
$PUCSNAME
  2

  9
$PUCSORG
 10
0.0
 20
0.0
 30
0.0
  9
$PUCSXDIR
 10
1.0
 20
0.0
 30
0.0
  9
$PUCSYDIR
 10
0.0
 20
1.0
 30
0.0
  9
$PUCSORTHOREF
  2

  9
$PUCSORTHOVIEW
 70
     0
  9
$PUCSORGTOP
 10
0.0
 20
0.0
 30
0.0
  9
$PUCSORGBOTTOM
 10
0.0
 20
0.0
 30
0.0
  9
$PUCSORGLEFT
 10
0.0
 20
0.0
 30
0.0
  9
$PUCSORGRIGHT
 10
0.0
 20
0.0
 30
0.0
  9
$PUCSORGFRONT
 10
0.0
 20
0.0
 30
0.0
  9
$PUCSORGBACK
 10
0.0
 20
0.0
 30
0.0
  9
$USERI1
 70
     0
  9
$USERI2
 70
     0
  9
$USERI3
 70
     0
  9
$USERI4
 70
     0
  9
$USERI5
 70
     0
  9
$USERR1
 40
0.0
  9
$USERR2
 40
0.0
  9
$USERR3
 40
0.0
  9
$USERR4
 40
0.0
  9
$USERR5
 40
0.0
  9
$WORLDVIEW
 70
     0
  9
$SHADEDGE
 70
     3
  9
$SHADEDIF
 70
    70
  9
$TILEMODE
 70
     1
  9
$MAXACTVP
 70
    16
  9
$PINSBASE
 10
0.0
 20
0.0
 30
0.0
  9
$PLIMCHECK
 70
     0
  9
$PEXTMIN
 10
1.000000000000000E+20
 20
1.000000000000000E+20
 30
1.000000000000000E+20
  9
$PEXTMAX
 10
-1.000000000000000E+20
 20
-1.000000000000000E+20
 30
-1.000000000000000E+20
  9
$PLIMMIN
 10
0.0
 20
0.0
  9
$PLIMMAX
 10
12.0
 20
9.0
  9
$UNITMODE
 70
     0
  9
$VISRETAIN
 70
     0
  9
$PLINEGEN
 70
     0
  9
$PSLTSCALE
 70
     0
  9
$TREEDEPTH
 70
  3020
  9
$CMLSTYLE
  2
STANDARD
  9
$CMLJUST
 70
     0
  9
$CMLSCALE
 40
1.0
  9
$PROXYGRAPHICS
 70
     1
  9
$MEASUREMENT
 70
     0
  9
$CELWEIGHT
370
    -1
  9
$ENDCAPS
280
     0
  9
$JOINSTYLE
280
     0
  9
$LWDISPLAY
290
     0
  9
$INSUNITS
 70
     0
  9
$HYPERLINKBASE
  1

  9
$STYLESHEET
  1

  9
$XEDIT
290
     1
  9
$CEPSNTYPE
380
     0
  9
$PSTYLEMODE
290
     1
  9
$FINGERPRINTGUID
  2
{25DB17C0-51EF-11DA-A1A5-00055D4BFF93}
  9
$VERSIONGUID
  2
{368D1BB9-B83A-4345-AA04-4E071B814299}
  9
$EXTNAMES
290
     1
  9
$PSVPSCALE
 40
0.0
  9
$OLESTARTUP
290
     0
  0
ENDSEC
  0
SECTION
  2
CLASSES
  0
CLASS
  1
DICTIONARYVAR
  2
AcDbDictionaryVar
  3
AutoCAD 2000
 90
        0
280
     0
281
     0
  0
CLASS
  1
LWPOLYLINE
  2
AcDbPolyline
  3
AutoCAD 2000
 90
    32768
280
     0
281
     1
  0
CLASS
  1
HATCH
  2
AcDbHatch
  3
AutoCAD 2000
 90
    32768
280
     0
281
     1
  0
CLASS
  1
SORTENTSTABLE
  2
AcDbSortentsTable
  3
AutoCAD 2000
 90
        0
280
     0
281
     0
  0
CLASS
  1
WIPEOUTVARIABLES
  2
AcDbWipeoutVariables
  3
WIPEOUT
 90
        0
280
     0
281
     0
  0
CLASS
  1
WIPEOUT
  2
AcDbWipeout
  3
WIPEOUT
 90
      127
280
     0
281
     1
  0
CLASS
  1
ACDBDICTIONARYWDFLT
  2
AcDbDictionaryWithDefault
  3
AutoCAD 2000
 90
        0
280
     0
281
     0
  0
CLASS
  1
ACDBPLACEHOLDER
  2
AcDbPlaceHolder
  3
AutoCAD 2000
 90
        0
280
     0
281
     0
  0
CLASS
  1
LAYOUT
  2
AcDbLayout
  3
AutoCAD 2000
 90
        0
280
     0
281
     0
  0
ENDSEC
  0
SECTION
  2
TABLES
  0
TABLE
  2
VPORT
  5
8
330
0
100
AcDbSymbolTable
 70
     4
  0
VPORT
  5
91EE
330
8
100
AcDbSymbolTableRecord
100
AcDbViewportTableRecord
  2
*Active
 70
     0
 10
0.0
 20
0.0
 11
1.0
 21
1.0
 12
517.0911386216337
 22
386.6432733392955
 13
0.0
 23
0.0
 14
10.0
 24
10.0
 15
0.0
 25
0.0
 16
0.0
 26
0.0
 36
1.0
 17
16.3133211678832
 27
12.7791147637061
 37
0.2229487474867098
 40
312.9691400491342
 41
2.301966292134831
 42
50.0
 43
0.0
 44
0.0
 50
0.0
 51
0.0
 71
     0
 72
  2000
 73
     1
 74
     2
 75
     0
 76
     0
 77
     0
 78
     1
281
     0
 65
     1
110
578.4833765754188
120
409.2077421121927
130
0.0
111
1.0
121
0.0
131
0.0
112
0.0
122
1.0
132
0.0
 79
     0
146
0.0
  0
ENDTAB
  0
TABLE
  2
LTYPE
  5
5
330
0
100
AcDbSymbolTable
 70
     3
  0
LTYPE
  5
11
330
5
100
AcDbSymbolTableRecord
100
AcDbLinetypeTableRecord
  2
BYBLOCK
 70
     0
  3

 72
    65
 73
     0
 40
0.0
  0
LTYPE
  5
12
330
5
100
AcDbSymbolTableRecord
100
AcDbLinetypeTableRecord
  2
BYLAYER
 70
     0
  3

 72
    65
 73
     0
 40
0.0
  0
LTYPE
  5
13
330
5
100
AcDbSymbolTableRecord
100
AcDbLinetypeTableRecord
  2
CONTINUOUS
 70
     0
  3
Solid line
 72
    65
 73
     0
 40
0.0
  0
LTYPE
  5
425C
330
5
100
AcDbSymbolTableRecord
100
AcDbLinetypeTableRecord
  2
CENTER
 70
     0
  3
Center ____ _ ____ _ ____ _ ____ _ ____ _ ____
 72
    65
 73
     4
 40
2.0
 49
1.25
 74
     0
 49
-0.25
 74
     0
 49
0.25
 74
     0
 49
-0.25
 74
     0
  0
LTYPE
  5
42A4
330
5
100
AcDbSymbolTableRecord
100
AcDbLinetypeTableRecord
  2
HIDDEN
 70
     0
  3
Hidden __ __ __ __ __ __ __ __ __ __ __ __ __ _
 72
    65
 73
     2
 40
0.375
 49
0.25
 74
     0
 49
-0.125
 74
     0
  0
ENDTAB
  0
TABLE
  2
LAYER
  5
2
330
0
100
AcDbSymbolTable
 70
     8
  0
LAYER
  5
E
330
2
100
AcDbSymbolTableRecord
100
AcDbLayerTableRecord
  2
0
 70
     0
 62
     7
  6
CONTINUOUS
370
    -3
390
8ABE
  0
LAYER
  5
425D
330
2
100
AcDbSymbolTableRecord
100
AcDbLayerTableRecord
  2
CENTRE
 70
     0
 62
     3
  6
CENTER
370
    -3
390
8ABE
  0
LAYER
  5
4261
330
2
100
AcDbSymbolTableRecord
100
AcDbLayerTableRecord
  2
M01
 70
     0
 62
     1
  6
CONTINUOUS
370
    -3
390
8ABE
  0
LAYER
  5
42A5
330
2
100
AcDbSymbolTableRecord
100
AcDbLayerTableRecord
  2
M03
 70
     0
 62
     2
  6
HIDDEN
370
    -3
390
8ABE
  0
LAYER
  5
42B0
330
2
100
AcDbSymbolTableRecord
100
AcDbLayerTableRecord
  2
M04
 70
     0
 62
     7
  6
CONTINUOUS
370
    -3
390
8ABE
  0
LAYER
  5
432E
330
2
100
AcDbSymbolTableRecord
100
AcDbLayerTableRecord
  2
DIMS
 70
     0
 62
     4
  6
CONTINUOUS
370
    -3
390
8ABE
  0
LAYER
  5
432F
330
2
100
AcDbSymbolTableRecord
100
AcDbLayerTableRecord
  2
TEXT
 70
     0
 62
     2
  6
CONTINUOUS
370
    -3
390
8ABE
  0
LAYER
  5
4570
330
2
100
AcDbSymbolTableRecord
100
AcDbLayerTableRecord
  2
DEFPOINTS
 70
     0
 62
     7
  6
CONTINUOUS
290
     0
370
    -3
390
8ABE
  0
ENDTAB
  0
TABLE
  2
STYLE
  5
3
330
0
100
AcDbSymbolTable
 70
     1
  0
STYLE
  5
F
330
3
100
AcDbSymbolTableRecord
100
AcDbTextStyleTableRecord
  2
STANDARD
 70
     0
 40
0.0
 41
1.0
 50
0.0
 71
     0
 42
2.0
  3
SIMPLEX
  4

  0
ENDTAB
  0
TABLE
  2
VIEW
  5
6
330
0
100
AcDbSymbolTable
 70
     0
  0
ENDTAB
  0
TABLE
  2
UCS
  5
7
330
0
100
AcDbSymbolTable
 70
     0
  0
ENDTAB
  0
TABLE
  2
APPID
  5
9
330
0
100
AcDbSymbolTable
 70
     6
  0
APPID
  5
10
330
9
100
AcDbSymbolTableRecord
100
AcDbRegAppTableRecord
  2
ACAD
 70
     0
  0
APPID
  5
114A
330
9
100
AcDbSymbolTableRecord
100
AcDbRegAppTableRecord
  2
CONTENTTABDATA
 70
     0
  0
APPID
  5
114B
330
9
100
AcDbSymbolTableRecord
100
AcDbRegAppTableRecord
  2
CONTENTCURRENTTAB
 70
     0
  0
APPID
  5
424D
330
9
100
AcDbSymbolTableRecord
100
AcDbRegAppTableRecord
  2
RAK
 70
     0
  0
APPID
  5
8175
330
9
100
AcDbSymbolTableRecord
100
AcDbRegAppTableRecord
  2
DRAWINGVARIABLESXDATA
 70
     0
  0
APPID
  5
8176
330
9
100
AcDbSymbolTableRecord
100
AcDbRegAppTableRecord
  2
CONTENTBLOCKDESCRIPTION
 70
     0
  0
ENDTAB
  0
TABLE
  2
DIMSTYLE
  5
A
330
0
100
AcDbSymbolTable
 70
    10
100
AcDbDimStyleTable
 71
     1
340
1011
  0
DIMSTYLE
105
25
330
A
100
AcDbSymbolTableRecord
100
AcDbDimStyleTableRecord
  2
AUDIT_I_100216164649-10
 70
     0
 41
3.0
 42
1.0
 43
10.0
 44
2.5
 45
0.01
 46
1.25
 73
     0
 74
     0
 77
     1
 78
     1
140
3.0
141
-0.07
143
0.039
145
1.5
147
0.0
176
     4
177
     4
178
     2
271
     2
272
     2
279
     2
284
     1
285
     1
286
     1
340
F
  0
DIMSTYLE
105
1011
330
A
100
AcDbSymbolTableRecord
100
AcDbDimStyleTableRecord
  2
DIM1
 70
     0
 41
3.0
 42
1.0
 43
10.0
 44
2.5
 45
0.01
 46
1.25
 47
0.05
 73
     0
 74
     0
 77
     3
 78
     1
140
3.0
141
-1.7
143
0.039
144
0.2
145
1.5
146
0.7
147
1.5
176
     4
177
     4
178
     2
271
     2
272
     2
284
     1
285
     1
286
     1
289
     0
340
F
  0
DIMSTYLE
105
101D
330
A
100
AcDbSymbolTableRecord
100
AcDbDimStyleTableRecord
  2
DIM1$2
 70
     0
 41
3.0
 42
1.0
 43
10.0
 44
2.5
 45
0.01
 46
1.25
 77
     1
 78
     1
140
3.0
141
-1.7
143
0.039
145
1.5
147
0.0
176
     4
177
     4
178
     2
179
     2
271
     2
272
     2
279
     2
284
     1
285
     1
286
     1
340
F
  0
DIMSTYLE
105
1025
330
A
100
AcDbSymbolTableRecord
100
AcDbDimStyleTableRecord
  2
DIM1$3
 70
     0
 41
3.0
 42
1.0
 43
10.0
 44
2.5
 45
0.01
 46
1.25
 78
     1
140
3.0
141
-1.7
143
0.039
147
0.0
172
     1
176
     4
177
     4
178
     2
271
     2
272
     2
284
     1
285
     1
286
     1
288
     1
289
     2
340
F
  0
DIMSTYLE
105
1061
330
A
100
AcDbSymbolTableRecord
100
AcDbDimStyleTableRecord
  2
DIM1$7
 70
     0
 41
3.0
 42
1.0
 43
10.0
 44
2.5
 45
0.01
 46
1.25
 73
     0
 74
     0
 78
     1
140
3.0
141
-1.7
143
0.039
147
1.5
176
     4
177
     4
178
     2
271
     2
272
     2
284
     1
285
     1
286
     1
289
     0
340
F
  0
DIMSTYLE
105
10B4
330
A
100
AcDbSymbolTableRecord
100
AcDbDimStyleTableRecord
  2
DIM1$4
 70
     0
 41
3.0
 42
1.0
 43
10.0
 44
2.5
 45
0.01
 46
1.25
 78
     1
140
3.0
141
-1.7
143
0.039
147
1.5
172
     1
176
     4
177
     4
178
     2
271
     2
272
     2
284
     1
285
     1
286
     1
288
     1
289
     0
340
F
  0
DIMSTYLE
105
10F8
330
A
100
AcDbSymbolTableRecord
100
AcDbDimStyleTableRecord
  2
DIM1$6
 70
     0
 41
3.0
 42
1.0
 43
10.0
 44
2.5
 45
0.01
 46
1.25
 73
     0
 74
     0
 78
     1
140
3.0
141
-1.7
143
0.039
147
1.5
176
     4
177
     4
178
     2
271
     2
272
     2
284
     1
285
     1
286
     1
289
     0
340
F
  0
DIMSTYLE
105
1EEC
330
A
100
AcDbSymbolTableRecord
100
AcDbDimStyleTableRecord
  2
TWOPLACES
 70
     0
 41
5.0
 42
2.5
 43
10.0
 44
2.5
 45
0.01
 73
     0
 74
     0
 77
     1
140
3.5
141
3.0
143
0.039
144
0.5
146
0.75
147
1.5
271
     2
340
F
  0
DIMSTYLE
105
21CF
330
A
100
AcDbSymbolTableRecord
100
AcDbDimStyleTableRecord
  2
STANDARD
 70
     0
340
F
  0
DIMSTYLE
105
7A1E
330
A
100
AcDbSymbolTableRecord
100
AcDbDimStyleTableRecord
  2
STANDARD_WS
 70
     0
 41
2.5
 42
0.625
 43
3.75
 44
1.25
 73
     0
 74
     0
 77
     1
 78
     8
140
2.5
141
2.5
143
0.0394
147
0.625
171
     4
172
     1
273
     8
274
     4
340
F
  0
ENDTAB
  0
TABLE
  2
BLOCK_RECORD
  5
1
330
0
100
AcDbSymbolTable
 70
     1
  0
BLOCK_RECORD
  5
17
102
{ACAD_XDICTIONARY
360
20BE
102
}
330
1
100
AcDbSymbolTableRecord
100
AcDbBlockTableRecord
  2
*MODEL_SPACE
340
8AC1
  0
BLOCK_RECORD
  5
14
330
1
100
AcDbSymbolTableRecord
100
AcDbBlockTableRecord
  2
*PAPER_SPACE
340
8AC2
  0
BLOCK_RECORD
  5
8FA3
330
1
100
AcDbSymbolTableRecord
100
AcDbBlockTableRecord
  2
Rear Heaterband
340
0
  0
ENDTAB
  0
ENDSEC
  0
SECTION
  2
BLOCKS
  0
BLOCK
  5
31
330
17
100
AcDbEntity
  8
0
100
AcDbBlockBegin
  2
*MODEL_SPACE
 70
     0
 10
0.0
 20
0.0
 30
0.0
  3
*MODEL_SPACE
  1

  0
ENDBLK
  5
32
330
17
100
AcDbEntity
  8
0
100
AcDbBlockEnd
  0
BLOCK
  5
2F
330
14
100
AcDbEntity
 67
     1
  8
0
100
AcDbBlockBegin
  2
*PAPER_SPACE
 70
     0
 10
0.0
 20
0.0
 30
0.0
  3
*PAPER_SPACE
  1

  0
ENDBLK
  5
30
330
14
100
AcDbEntity
 67
     1
  8
0
100
AcDbBlockEnd
  0
BLOCK
  5
9030
330
8FA3
100
AcDbEntity
  8
0
 62
     1
100
AcDbBlockBegin
  2
Rear Heaterband
 70
     0
 10
0.0
 20
0.0
 30
0.0
  3
Rear Heaterband
  1

  0
LINE
  5
8FA4
330
8FA3
100
AcDbEntity
  8
CENTRE
 48
0.7
100
AcDbLine
 10
608.1559522081331
 20
318.3594705992558
 30
0.0
 11
616.6559522081331
 21
318.3594705992558
 31
0.0
  0
LINE
  5
8FA5
330
8FA3
100
AcDbEntity
  8
M01
100
AcDbLine
 10
616.5709522081329
 20
388.3459687483063
 30
0.0
 11
612.5809522081331
 21
388.3459687483063
 31
0.0
  0
LINE
  5
8FA6
330
8FA3
100
AcDbEntity
  8
M01
100
AcDbLine
 10
618.0809522081332
 20
416.3459687483065
 30
0.0
 11
611.0809522081329
 21
416.3459687483061
 31
0.0
  0
LINE
  5
8FA7
330
8FA3
100
AcDbEntity
  8
M01
100
AcDbLine
 10
618.0809522081332
 20
406.3459687483065
 30
0.0
 11
618.0809522081332
 21
416.3459687483065
 31
0.0
  0
LINE
  5
8FA8
330
8FA3
100
AcDbEntity
  8
M01
100
AcDbLine
 10
616.5709522081329
 20
388.3459687483063
 30
0.0
 11
617.5809522081331
 21
398.2707119326384
 31
0.0
  0
LINE
  5
8FA9
330
8FA3
100
AcDbEntity
  8
M01
100
AcDbLine
 10
611.0809522081329
 20
406.3459687483061
 30
0.0
 11
611.0809522081329
 21
416.3459687483061
 31
0.0
  0
LINE
  5
8FAA
330
8FA3
100
AcDbEntity
  8
M01
100
AcDbLine
 10
612.5809522081332
 20
388.3459687483063
 30
0.0
 11
611.5809522081327
 21
398.270711932639
 31
0.0
  0
LINE
  5
8FAB
330
8FA3
100
AcDbEntity
  8
M01
100
AcDbLine
 10
611.5809522081327
 20
398.270711932639
 30
0.0
 11
611.5809522081328
 21
406.3459687483063
 31
0.0
  0
LINE
  5
8FAC
330
8FA3
100
AcDbEntity
  8
M01
100
AcDbLine
 10
617.5809522081331
 20
398.2707119326384
 30
0.0
 11
617.580952208133
 21
406.3459687483063
 31
0.0
  0
LINE
  5
8FAD
330
8FA3
100
AcDbEntity
  8
M01
100
AcDbLine
 10
611.5809522081327
 20
398.270711932639
 30
0.0
 11
617.5809522081331
 21
398.2707119326384
 31
0.0
  0
LINE
  5
8FAE
330
8FA3
100
AcDbEntity
  8
M01
100
AcDbLine
 10
618.0809522081332
 20
406.3459687483065
 30
0.0
 11
611.0809522081329
 21
406.3459687483061
 31
0.0
  0
LINE
  5
8FAF
330
8FA3
100
AcDbEntity
  8
CENTRE
 48
0.7
100
AcDbLine
 10
614.580952208133
 20
378.0206770307287
 30
0.0
 11
614.580952208133
 21
451.0962635646285
 31
0.0
  0
LINE
  5
8FB0
330
8FA3
100
AcDbEntity
  8
M01
100
AcDbLine
 10
616.8309522081333
 20
416.3459687483064
 30
0.0
 11
616.8309522081334
 21
416.4021211752226
 31
0.0
  0
LINE
  5
8FB1
330
8FA3
100
AcDbEntity
  8
M01
100
AcDbLine
 10
612.5809522081332
 20
388.3459687483063
 30
0.0
 11
612.5809522081332
 21
382.1957051622347
 31
0.0
  0
LINE
  5
8FB2
330
8FA3
100
AcDbEntity
  8
M01
100
AcDbLine
 10
616.5709522081329
 20
388.3459687483063
 30
0.0
 11
616.5709522081331
 21
381.4680546422516
 31
0.0
  0
LINE
  5
8FB3
330
8FA3
100
AcDbEntity
  8
CENTRE
100
AcDbLine
 10
536.1074011414088
 20
318.3594705992558
 30
0.0
 11
462.6074011414089
 21
318.3594705992558
 31
0.0
  0
LINE
  5
8FB4
330
8FA3
100
AcDbEntity
  8
CENTRE
 48
0.7
100
AcDbLine
 10
499.3574011414087
 20
281.6094705992558
 30
0.0
 11
499.3574011414087
 21
363.3594705992559
 31
0.0
  0
LINE
  5
8FB5
102
{ACAD_REACTORS
330
8FF9
102
}
330
8FA3
100
AcDbEntity
  8
M01
100
AcDbLine
 10
616.6459522081331
 20
342.4894705992558
 30
0.0
 11
614.905952208133
 21
342.4894705992558
 31
0.0
  0
LINE
  5
8FB6
102
{ACAD_REACTORS
330
8FF9
102
}
330
8FA3
100
AcDbEntity
  8
M01
100
AcDbLine
 10
616.6459522081331
 20
294.2294705992558
 30
0.0
 11
614.905952208133
 21
294.2294705992558
 31
0.0
  0
LINE
  5
8FB7
330
8FA3
100
AcDbEntity
  8
M01
100
AcDbLine
 10
612.4059522081331
 20
342.4894705992558
 30
0.0
 11
612.4059522081331
 21
294.2294705992559
 31
0.0
  0
LINE
  5
8FB8
102
{ACAD_REACTORS
330
8FF9
102
}
330
8FA3
100
AcDbEntity
  8
M01
100
AcDbLine
 10
614.9059522081331
 20
294.2294705992559
 30
0.0
 11
604.3809522081335
 21
294.2294705992558
 31
0.0
  0
LINE
  5
8FB9
102
{ACAD_REACTORS
330
8FF9
102
}
330
8FA3
100
AcDbEntity
  8
M01
100
AcDbLine
 10
614.9059522081331
 20
342.4894705992558
 30
0.0
 11
604.380952208133
 21
342.4894705992558
 31
0.0
  0
LINE
  5
8FBA
102
{ACAD_REACTORS
330
8FF9
102
}
330
8FA3
100
AcDbEntity
  8
M01
100
AcDbLine
 10
604.380952208133
 20
357.3594705992557
 30
0.0
 11
604.380952208133
 21
342.4894705992558
 31
0.0
  0
LINE
  5
8FBB
330
8FA3
100
AcDbEntity
  8
M04
100
AcDbLine
 10
608.580952208133
 20
451.6862200544552
 30
0.0
 11
608.5809522081328
 21
379.3889655358678
 31
0.0
  0
LINE
  5
8FBC
330
8FA3
100
AcDbEntity
  8
M01
100
AcDbLine
 10
609.5693934477761
 20
358.5750654359976
 30
0.0
 11
615.3825109684902
 21
374.6764968676588
 31
0.0
  0
LINE
  5
8FBD
330
8FA3
100
AcDbEntity
  8
M01
100
AcDbLine
 10
605.8070816957044
 20
359.9333769909154
 30
0.0
 11
611.3925109684903
 21
375.404147387642
 31
0.0
  0
ARC
  5
8FBE
330
8FA3
100
AcDbEntity
  8
M01
100
AcDbCircle
 10
592.5809522081332
 20
382.1957051622347
 30
0.0
 40
20.0
100
AcDbArc
 50
340.1488411351243
 51
0.0
  0
ARC
  5
8FBF
330
8FA3
100
AcDbEntity
  8
M01
100
AcDbCircle
 10
596.5709522081331
 20
381.4680546422516
 30
0.0
 40
20.0
100
AcDbArc
 50
340.1488411351243
 51
0.0000000000001781
  0
LINE
  5
8FC0
330
8FA3
100
AcDbEntity
  8
0
100
AcDbLine
 10
600.6006858538341
 20
292.3594705992558
 30
0.0
 11
600.6006858538341
 21
294.2294705992558
 31
0.0
  0
LINE
  5
8FC1
330
8FA3
100
AcDbEntity
  8
M01
100
AcDbLine
 10
612.0809522081331
 20
441.3666433246353
 30
0.0
 11
612.080952208133
 21
416.3459687483062
 31
0.0
  0
LINE
  5
8FC2
330
8FA3
100
AcDbEntity
  8
M01
100
AcDbLine
 10
617.0809522081331
 20
442.7063892867909
 30
0.0
 11
617.0809522081331
 21
416.3459687483065
 31
0.0
  0
HATCH
  5
8FC3
330
8FA3
100
AcDbEntity
  8
M01
100
AcDbHatch
 10
0.0
 20
0.0
 30
0.0
210
0.0
220
0.0
230
1.0
  2
ANSI31
 70
     0
 71
     0
 91
        2
 92
        7
 72
     0
 73
     1
 93
        4
 10
614.580952208133
 20
442.0365163057131
 10
612.0809522081331
 20
441.3666433246354
 10
612.080952208133
 20
416.3459687483062
 10
614.580952208133
 20
416.3459687483063
 97
        0
 92
        7
 72
     0
 73
     1
 93
        4
 10
617.0809522081331
 20
442.7063892867909
 10
614.580952208133
 20
442.0365163057131
 10
614.580952208133
 20
416.3459687483063
 10
617.0809522081331
 20
416.3459687483065
 97
        0
 75
     0
 76
     1
 52
0.0
 41
10.0
 77
     0
 78
     1
 53
45.0
 43
543.4833765754189
 44
409.2077421121927
 45
-0.8838834764831842
 46
0.8838834764831844
 79
     0
 47
0.1095052059876858
 98
        2
 10
612.5667754199762
 20
437.753234641164
 10
615.306447331473
 20
438.1912570152818
  0
HATCH
  5
8FC4
330
8FA3
100
AcDbEntity
  8
M01
100
AcDbHatch
 10
0.0
 20
0.0
 30
0.0
210
0.0
220
0.0
230
1.0
  2
ANSI31
 70
     0
 71
     0
 91
        2
 92
        7
 72
     0
 73
     1
 93
        4
 10
614.580952208133
 20
442.0365163057131
 10
612.0809522081331
 20
441.3666433246354
 10
612.080952208133
 20
416.3459687483062
 10
614.580952208133
 20
416.3459687483063
 97
        0
 92
        7
 72
     0
 73
     1
 93
        4
 10
617.0809522081331
 20
442.7063892867909
 10
614.580952208133
 20
442.0365163057131
 10
614.580952208133
 20
416.3459687483063
 10
617.0809522081331
 20
416.3459687483065
 97
        0
 75
     0
 76
     1
 52
90.0
 41
10.0
 77
     0
 78
     1
 53
135.0
 43
543.4833765754189
 44
409.2077421121927
 45
-0.8838834764831844
 46
-0.8838834764831842
 79
     0
 47
0.1095052059876858
 98
        2
 10
613.1147110221063
 20
434.4680795629679
 10
615.5256234020703
 20
434.6870897709737
  0
ARC
  5
8FC5
330
8FA3
100
AcDbEntity
  8
M01
100
AcDbCircle
 10
628.3809522081333
 20
351.7835076614048
 30
0.0
 40
20.0
100
AcDbArc
 50
160.1488411351239
 51
163.8115125427529
  0
ARC
  5
8FC6
330
8FA3
100
AcDbEntity
  8
M01
100
AcDbCircle
 10
628.380952208133
 20
351.7835076614041
 30
0.0
 40
24.0
100
AcDbArc
 50
160.1488411351242
 51
166.5656071099218
  0
ARC
  5
8FC7
330
8FA3
100
AcDbEntity
  8
0
100
AcDbCircle
 10
499.3574011414088
 20
318.3594705992558
 30
0.0
 40
31.75
100
AcDbArc
 50
129.0443134691176
 51
50.95568653088319
  0
LINE
  5
8FC8
330
8FA3
100
AcDbEntity
  8
0
100
AcDbLine
 10
519.3574011414086
 20
343.0183939334164
 30
0.0
 11
519.3574011414086
 21
355.3594705992558
 31
0.0
  0
LINE
  5
8FC9
330
8FA3
100
AcDbEntity
  8
0
100
AcDbLine
 10
479.3574011414084
 20
355.3594705992558
 30
0.0
 11
479.3574011414087
 21
343.0183939334161
 31
0.0
  0
ARC
  5
8FCA
330
8FA3
100
AcDbEntity
  8
M01
100
AcDbCircle
 10
499.3574011414088
 20
318.3594705992558
 30
0.0
 40
28.47300000000008
100
AcDbArc
 50
112.7263896637251
 51
67.27361033627544
  0
LINE
  5
8FCB
330
8FA3
100
AcDbEntity
  8
0
100
AcDbLine
 10
516.3574011414087
 20
358.3594705992558
 30
0.0
 11
508.8524011414086
 21
358.3594705992558
 31
0.0
  0
ARC
  5
8FCC
330
8FA3
100
AcDbEntity
  8
0
100
AcDbCircle
 10
516.3574011414087
 20
355.3594705992558
 30
0.0
 40
3.0
100
AcDbArc
 50
0.0
 51
89.99999999999991
  0
ARC
  5
8FCD
330
8FA3
100
AcDbEntity
  8
0
100
AcDbCircle
 10
482.3574011414083
 20
355.3594705992559
 30
0.0
 40
3.0
100
AcDbArc
 50
89.99999999999991
 51
180.0000000000013
  0
LINE
  5
8FCE
330
8FA3
100
AcDbEntity
  8
0
 62
     1
100
AcDbLine
 10
510.3574011414088
 20
344.6218339544454
 30
0.0
 11
510.3574011414087
 21
357.3594705992558
 31
0.0
  0
LINE
  5
8FCF
330
8FA3
100
AcDbEntity
  8
0
 62
     1
100
AcDbLine
 10
510.3574011414087
 20
357.3594705992558
 30
0.0
 11
509.3574011414087
 21
357.3594705992558
 31
0.0
  0
LINE
  5
8FD0
330
8FA3
100
AcDbEntity
  8
0
 62
     1
100
AcDbLine
 10
509.3574011414087
 20
357.3594705992558
 30
0.0
 11
509.3574011414087
 21
343.9478611113613
 31
0.0
  0
LINE
  5
8FD1
330
8FA3
100
AcDbEntity
  8
0
 62
     1
100
AcDbLine
 10
489.3574011414087
 20
343.9478611113611
 30
0.0
 11
489.3574011414087
 21
357.3594705992558
 31
0.0
  0
LINE
  5
8FD2
330
8FA3
100
AcDbEntity
  8
0
 62
     1
100
AcDbLine
 10
489.3574011414087
 20
357.3594705992558
 30
0.0
 11
488.3574011414087
 21
357.3594705992558
 31
0.0
  0
LINE
  5
8FD3
330
8FA3
100
AcDbEntity
  8
0
 62
     1
100
AcDbLine
 10
488.3574011414087
 20
357.3594705992558
 30
0.0
 11
488.3574011414087
 21
344.6218339544454
 31
0.0
  0
LINE
  5
8FD4
330
8FA3
100
AcDbEntity
  8
0
 62
     1
100
AcDbLine
 10
513.3574011414087
 20
347.3594705992558
 30
0.0
 11
513.3574011414086
 21
357.3594705992558
 31
0.0
  0
LINE
  5
8FD5
330
8FA3
100
AcDbEntity
  8
0
 62
     1
100
AcDbLine
 10
510.3574011414087
 20
357.3594705992558
 30
0.0
 11
513.3574011414086
 21
357.3594705992558
 31
0.0
  0
LINE
  5
8FD6
330
8FA3
100
AcDbEntity
  8
0
 62
     1
100
AcDbLine
 10
510.3574011414088
 20
347.3594705992558
 30
0.0
 11
513.3574011414087
 21
347.3594705992558
 31
0.0
  0
LINE
  5
8FD7
330
8FA3
100
AcDbEntity
  8
0
 62
     1
100
AcDbLine
 10
489.3574011414087
 20
354.3594705992559
 30
0.0
 11
497.3574011414086
 21
354.3594705992558
 31
0.0
  0
LINE
  5
8FD8
330
8FA3
100
AcDbEntity
  8
0
 62
     1
100
AcDbLine
 10
489.3574011414087
 20
350.3594705992559
 30
0.0
 11
497.3574011414087
 21
350.3594705992558
 31
0.0
  0
LINE
  5
8FD9
330
8FA3
100
AcDbEntity
  8
0
 62
     1
100
AcDbLine
 10
513.3574011414086
 20
354.3594705992558
 30
0.0
 11
516.3574011414087
 21
354.3594705992558
 31
0.0
  0
LINE
  5
8FDA
330
8FA3
100
AcDbEntity
  8
0
 62
     1
100
AcDbLine
 10
516.3574011414087
 20
354.3594705992558
 30
0.0
 11
516.3574011414087
 21
350.3594705992558
 31
0.0
  0
LINE
  5
8FDB
330
8FA3
100
AcDbEntity
  8
0
 62
     1
100
AcDbLine
 10
516.3574011414087
 20
350.3594705992558
 30
0.0
 11
513.3574011414087
 21
350.3594705992558
 31
0.0
  0
LINE
  5
8FDC
330
8FA3
100
AcDbEntity
  8
0
 62
     1
100
AcDbLine
 10
488.3574011414087
 20
355.8594705992559
 30
0.0
 11
484.3574011414087
 21
355.8594705992559
 31
0.0
  0
LINE
  5
8FDD
330
8FA3
100
AcDbEntity
  8
0
 62
     1
100
AcDbLine
 10
484.3574011414087
 20
355.8594705992559
 30
0.0
 11
484.3574011414087
 21
348.8594705992559
 31
0.0
  0
LINE
  5
8FDE
330
8FA3
100
AcDbEntity
  8
0
 62
     1
100
AcDbLine
 10
484.3574011414087
 20
348.8594705992559
 30
0.0
 11
488.3574011414087
 21
348.8594705992559
 31
0.0
  0
CIRCLE
  5
8FDF
330
8FA3
100
AcDbEntity
  8
0
 62
     1
100
AcDbCircle
 10
499.3574011414088
 20
318.3594705992558
 30
0.0
 40
27.47300000000007
  0
LINE
  5
8FE0
330
8FA3
100
AcDbEntity
  8
0
100
AcDbLine
 10
603.6006858538341
 20
286.6094705992558
 30
0.0
 11
617.405952208133
 21
286.6094705992558
 31
0.0
  0
LINE
  5
8FE1
330
8FA3
100
AcDbEntity
  8
0
100
AcDbLine
 10
600.6006858538341
 20
292.3594705992558
 30
0.0
 11
600.6006858538341
 21
289.6094705992558
 31
0.0
  0
ARC
  5
8FE2
330
8FA3
100
AcDbEntity
  8
0
100
AcDbCircle
 10
603.6006858538341
 20
289.6094705992558
 30
0.0
 40
3.0
100
AcDbArc
 50
180.0
 51
270.0
  0
LINE
  5
8FE3
102
{ACAD_REACTORS
330
8FF9
102
}
330
8FA3
100
AcDbEntity
  8
M01
100
AcDbLine
 10
612.3809522081333
 20
344.6894705992558
 30
0.0
 11
612.3809522081333
 21
342.4894705992558
 31
0.0
  0
LINE
  5
8FE4
102
{ACAD_REACTORS
330
8FF9
102
}
330
8FA3
100
AcDbEntity
  8
M01
100
AcDbLine
 10
616.3809522081334
 20
345.6894705992559
 30
0.0
 11
616.3809522081333
 21
342.4894705992558
 31
0.0
  0
LINE
  5
8FE5
102
{ACAD_REACTORS
330
8FF9
102
}
330
8FA3
100
AcDbEntity
  8
M01
100
AcDbLine
 10
616.3809522081333
 20
344.6894705992558
 30
0.0
 11
604.3809522081329
 21
344.6894705992558
 31
0.0
  0
LINE
  5
8FE6
330
8FA3
100
AcDbEntity
  8
M01
100
AcDbLine
 10
616.3809522081333
 20
345.6894705992558
 30
0.0
 11
604.3809522081329
 21
345.6894705992559
 31
0.0
  0
LINE
  5
8FE7
102
{ACAD_REACTORS
330
8FF9
102
}
330
8FA3
100
AcDbEntity
  8
M01
100
AcDbLine
 10
608.3809522081333
 20
344.6894705992558
 30
0.0
 11
608.3809522081333
 21
342.4894705992559
 31
0.0
  0
LINE
  5
8FE8
102
{ACAD_REACTORS
330
8FF9
102
}
330
8FA3
100
AcDbEntity
  8
M01
100
AcDbLine
 10
616.3809522081335
 20
292.029470599256
 30
0.0
 11
604.3809522081332
 21
292.0294705992558
 31
0.0
  0
LINE
  5
8FE9
330
8FA3
100
AcDbEntity
  8
M01
100
AcDbLine
 10
616.3809522081335
 20
291.0294705992559
 30
0.0
 11
604.3809522081332
 21
291.0294705992558
 31
0.0
  0
LINE
  5
8FEA
102
{ACAD_REACTORS
330
8FF9
102
}
330
8FA3
100
AcDbEntity
  8
M01
100
AcDbLine
 10
608.3809522081335
 20
292.0294705992559
 30
0.0
 11
608.3809522081335
 21
294.2294705992558
 31
0.0
  0
LINE
  5
8FEB
102
{ACAD_REACTORS
330
8FF9
102
}
330
8FA3
100
AcDbEntity
  8
M01
100
AcDbLine
 10
612.3809522081335
 20
292.0294705992559
 30
0.0
 11
612.3809522081335
 21
294.2294705992558
 31
0.0
  0
LINE
  5
8FEC
102
{ACAD_REACTORS
330
8FF9
102
}
330
8FA3
100
AcDbEntity
  8
M01
100
AcDbLine
 10
616.3809522081335
 20
291.029470599256
 30
0.0
 11
616.3809522081335
 21
294.2294705992558
 31
0.0
  0
LINE
  5
8FED
102
{ACAD_REACTORS
330
8FF9
102
}
330
8FA3
100
AcDbEntity
  8
M01
100
AcDbLine
 10
604.3809522081335
 20
291.0294705992558
 30
0.0
 11
604.3809522081335
 21
294.2294705992558
 31
0.0
  0
LINE
  5
8FEE
330
8FA3
100
AcDbEntity
  8
0
100
AcDbLine
 10
603.6006858538341
 20
350.109470599256
 30
0.0
 11
604.3809522081332
 21
350.109470599256
 31
0.0
  0
LINE
  5
8FEF
330
8FA3
100
AcDbEntity
  8
0
100
AcDbLine
 10
600.6006858538341
 20
342.4894705992558
 30
0.0
 11
600.6006858538341
 21
355.3594705992558
 31
0.0
  0
ARC
  5
8FF0
330
8FA3
100
AcDbEntity
  8
0
100
AcDbCircle
 10
603.6006858538341
 20
347.1094705992559
 30
0.0
 40
3.0
100
AcDbArc
 50
90.00000000000003
 51
180.0
  0
LINE
  5
8FF1
330
8FA3
100
AcDbEntity
  8
0
100
AcDbLine
 10
616.3809522081333
 20
350.1094705992559
 30
0.0
 11
617.405952208133
 21
350.109470599256
 31
0.0
  0
LINE
  5
8FF2
330
8FA3
100
AcDbEntity
  8
0
100
AcDbLine
 10
603.6006858538341
 20
358.3594705992558
 30
0.0
 11
605.2994290469549
 21
358.3594705992558
 31
0.0
  0
ARC
  5
8FF3
330
8FA3
100
AcDbEntity
  8
0
100
AcDbCircle
 10
603.6006858538341
 20
355.3594705992558
 30
0.0
 40
3.0
100
AcDbArc
 50
90.0
 51
180.0
  0
LINE
  5
8FF4
330
8FA3
100
AcDbEntity
  8
0
100
AcDbLine
 10
609.4929477756896
 20
358.3594705992558
 30
0.0
 11
617.4059522081331
 21
358.3594705992558
 31
0.0
  0
LINE
  5
8FF5
330
8FA3
100
AcDbEntity
  8
0
 62
     1
100
AcDbLine
 10
616.3809522081335
 20
357.3594705992558
 30
0.0
 11
604.380952208133
 21
357.3594705992557
 31
0.0
  0
LINE
  5
8FF6
330
8FA3
100
AcDbEntity
  8
0
 62
     1
100
AcDbLine
 10
616.3809522081334
 20
345.6894705992559
 30
0.0
 11
616.3809522081334
 21
357.3594705992558
 31
0.0
  0
CIRCLE
  5
8FF7
330
8FA3
100
AcDbEntity
  8
0
 62
     1
100
AcDbCircle
 10
610.3809522081332
 20
352.3594705992558
 30
0.0
 40
4.5
  0
CIRCLE
  5
8FF8
330
8FA3
100
AcDbEntity
  8
0
 62
     1
100
AcDbCircle
 10
610.3809522081332
 20
352.3594705992558
 30
0.0
 40
2.0
  0
HATCH
  5
8FF9
330
8FA3
100
AcDbEntity
  8
0
 62
     1
100
AcDbHatch
 10
0.0
 20
0.0
 30
0.0
210
0.0
220
0.0
230
1.0
  2
ANSI31
 70
     0
 71
     1
 91
        6
 92
        7
 72
     0
 73
     1
 93
        4
 10
608.3809522081333
 20
344.6894705992558
 10
604.380952208133
 20
344.6894705992558
 10
604.380952208133
 20
342.4894705992558
 10
608.3809522081333
 20
342.4894705992558
 97
        4
330
8FE5
330
8FBA
330
8FB9
330
8FE7
 92
        7
 72
     0
 73
     1
 93
        4
 10
612.3809522081333
 20
344.6894705992558
 10
608.3809522081333
 20
344.6894705992558
 10
608.3809522081333
 20
342.4894705992558
 10
612.3809522081333
 20
342.4894705992558
 97
        4
330
8FE5
330
8FE7
330
8FB9
330
8FE3
 92
        7
 72
     0
 73
     1
 93
        5
 10
616.3809522081333
 20
342.4894705992558
 10
616.3809522081334
 20
344.6894705992558
 10
612.3809522081333
 20
344.6894705992558
 10
612.3809522081333
 20
342.4894705992558
 10
614.9059522081331
 20
342.4894705992558
 97
        5
330
8FE5
330
8FE3
330
8FB9
330
8FB5
330
8FE4
 92
        7
 72
     0
 73
     1
 93
        4
 10
608.3809522081335
 20
294.2294705992558
 10
604.3809522081335
 20
294.2294705992558
 10
604.3809522081335
 20
292.0294705992558
 10
608.3809522081335
 20
292.0294705992558
 97
        4
330
8FB8
330
8FED
330
8FE8
330
8FEA
 92
        7
 72
     0
 73
     1
 93
        4
 10
612.3809522081335
 20
294.2294705992559
 10
608.3809522081335
 20
294.2294705992559
 10
608.3809522081335
 20
292.0294705992558
 10
612.3809522081335
 20
292.0294705992559
 97
        4
330
8FB8
330
8FEA
330
8FE8
330
8FEB
 92
        7
 72
     0
 73
     1
 93
        5
 10
616.3809522081335
 20
292.029470599256
 10
616.3809522081335
 20
294.2294705992558
 10
614.905952208133
 20
294.2294705992558
 10
612.3809522081335
 20
294.2294705992558
 10
612.3809522081335
 20
292.0294705992559
 97
        5
330
8FB6
330
8FB8
330
8FEB
330
8FE8
330
8FEC
 75
     0
 76
     1
 52
90.0
 41
5.0
 77
     0
 78
     1
 53
135.0
 43
543.4833765754189
 44
409.2077421121927
 45
-0.4419417382415923
 46
-0.4419417382415922
 79
     0
 47
0.218101635078581
 98
        6
 10
606.7673371091914
 20
343.5006358480994
 10
609.6047422200281
 20
343.7187340605985
 10
613.5334735372053
 20
343.7187340605985
 10
605.6760109028473
 20
292.9010445961583
 10
609.1682273831829
 20
293.1191554016594
 10
613.5334735372053
 20
293.1191554016594
  0
LINE
  5
8FFA
330
8FA3
100
AcDbEntity
  8
M01
100
AcDbLine
 10
506.3524011414086
 20
388.3459687483064
 30
0.0
 11
502.3624011414088
 21
388.3459687483064
 31
0.0
  0
LINE
  5
8FFB
330
8FA3
100
AcDbEntity
  8
M01
100
AcDbLine
 10
507.8624011414088
 20
406.3459687483065
 30
0.0
 11
507.8624011414088
 21
416.3459687483066
 31
0.0
  0
LINE
  5
8FFC
330
8FA3
100
AcDbEntity
  8
M01
100
AcDbLine
 10
506.3524011414086
 20
388.3459687483064
 30
0.0
 11
507.3624011414088
 21
398.2707119326385
 31
0.0
  0
LINE
  5
8FFD
330
8FA3
100
AcDbEntity
  8
M01
100
AcDbLine
 10
500.8624011414086
 20
406.3459687483061
 30
0.0
 11
500.8624011414086
 21
416.3459687483062
 31
0.0
  0
LINE
  5
8FFE
330
8FA3
100
AcDbEntity
  8
M01
100
AcDbLine
 10
502.3624011414089
 20
388.3459687483064
 30
0.0
 11
501.3624011414084
 21
398.270711932639
 31
0.0
  0
LINE
  5
8FFF
330
8FA3
100
AcDbEntity
  8
M01
100
AcDbLine
 10
501.3624011414084
 20
398.270711932639
 30
0.0
 11
501.3624011414085
 21
406.3459687483064
 31
0.0
  0
LINE
  5
9000
330
8FA3
100
AcDbEntity
  8
M01
100
AcDbLine
 10
507.3624011414088
 20
398.2707119326385
 30
0.0
 11
507.3624011414087
 21
406.3459687483064
 31
0.0
  0
LINE
  5
9001
330
8FA3
100
AcDbEntity
  8
M01
100
AcDbLine
 10
501.3624011414084
 20
398.270711932639
 30
0.0
 11
507.3624011414088
 21
398.2707119326385
 31
0.0
  0
LINE
  5
9002
330
8FA3
100
AcDbEntity
  8
M01
100
AcDbLine
 10
507.8624011414088
 20
406.3459687483065
 30
0.0
 11
500.8624011414086
 21
406.3459687483061
 31
0.0
  0
LINE
  5
9003
330
8FA3
100
AcDbEntity
  8
0
 62
     1
100
AcDbLine
 10
508.8524011414087
 20
362.9395343040654
 30
0.0
 11
508.8524011414084
 21
344.1395152850203
 31
0.0
  0
LINE
  5
9004
330
8FA3
100
AcDbEntity
  8
0
 62
     1
100
AcDbLine
 10
504.8624011414088
 20
362.5615899616181
 30
0.0
 11
504.8624011414089
 21
345.2752782965924
 31
0.0
  0
LINE
  5
9005
330
8FA3
100
AcDbEntity
  8
M01
100
AcDbLine
 10
501.8624011414089
 20
441.3666433246354
 30
0.0
 11
501.8624011414088
 21
416.3459687483062
 31
0.0
  0
LINE
  5
9006
330
8FA3
100
AcDbEntity
  8
M01
100
AcDbLine
 10
506.8624011414089
 20
442.706389286791
 30
0.0
 11
506.8624011414089
 21
416.3459687483065
 31
0.0
  0
HATCH
  5
9007
330
8FA3
100
AcDbEntity
  8
M01
100
AcDbHatch
 10
0.0
 20
0.0
 30
0.0
210
0.0
220
0.0
230
1.0
  2
ANSI31
 70
     0
 71
     0
 91
        2
 92
        7
 72
     0
 73
     1
 93
        4
 10
504.3624011414088
 20
442.0365163057132
 10
501.8624011414089
 20
441.3666433246354
 10
501.8624011414088
 20
416.3459687483062
 10
504.3624011414087
 20
416.3459687483063
 97
        0
 92
        7
 72
     0
 73
     1
 93
        4
 10
506.8624011414089
 20
442.706389286791
 10
504.3624011414088
 20
442.0365163057132
 10
504.3624011414087
 20
416.3459687483063
 10
506.8624011414089
 20
416.3459687483065
 97
        0
 75
     0
 76
     1
 52
0.0
 41
10.0
 77
     0
 78
     1
 53
45.0
 43
433.2648255086946
 44
409.2077421121928
 45
-0.8838834764831842
 46
0.8838834764831844
 79
     0
 47
0.1095052059876858
 98
        2
 10
502.3482243532519
 20
437.7532346411641
 10
505.0878962647487
 20
438.1912570152818
  0
HATCH
  5
9008
330
8FA3
100
AcDbEntity
  8
M01
100
AcDbHatch
 10
0.0
 20
0.0
 30
0.0
210
0.0
220
0.0
230
1.0
  2
ANSI31
 70
     0
 71
     0
 91
        2
 92
        7
 72
     0
 73
     1
 93
        4
 10
504.3624011414088
 20
442.0365163057132
 10
501.8624011414089
 20
441.3666433246354
 10
501.8624011414088
 20
416.3459687483062
 10
504.3624011414087
 20
416.3459687483063
 97
        0
 92
        7
 72
     0
 73
     1
 93
        4
 10
506.8624011414089
 20
442.706389286791
 10
504.3624011414088
 20
442.0365163057132
 10
504.3624011414087
 20
416.3459687483063
 10
506.8624011414089
 20
416.3459687483065
 97
        0
 75
     0
 76
     1
 52
90.0
 41
10.0
 77
     0
 78
     1
 53
135.0
 43
433.2648255086946
 44
409.2077421121928
 45
-0.8838834764831844
 46
-0.8838834764831842
 79
     0
 47
0.1095052059876858
 98
        2
 10
502.8961599553821
 20
434.4680795629679
 10
505.3070723353461
 20
434.6870897709737
  0
LINE
  5
9009
330
8FA3
100
AcDbEntity
  8
0
 62
     1
100
AcDbLine
 10
500.8624011414086
 20
416.3459687483062
 30
0.0
 11
507.8624011414088
 21
416.3459687483066
 31
0.0
  0
LINE
  5
900A
330
8FA3
100
AcDbEntity
  8
0
100
AcDbLine
 10
509.3574011414085
 20
358.3594705992559
 30
0.0
 11
509.3574011414085
 21
451.6862200544552
 31
0.0
  0
LINE
  5
900B
330
8FA3
100
AcDbEntity
  8
0
100
AcDbLine
 10
489.3574011414085
 20
358.3594705992559
 30
0.0
 11
489.3574011414085
 21
451.6862200544552
 31
0.0
  0
LINE
  5
900C
330
8FA3
100
AcDbEntity
  8
0
 62
     1
100
AcDbLine
 10
506.3524011414086
 20
388.3459687483064
 30
0.0
 11
506.352401141409
 21
380.297947227244
 31
0.0
  0
LINE
  5
900D
330
8FA3
100
AcDbEntity
  8
0
 62
     1
100
AcDbLine
 10
502.3624011414089
 20
388.3459687483064
 30
0.0
 11
502.3624011414088
 21
380.2348097120972
 31
0.0
  0
LINE
  5
900E
330
8FA3
100
AcDbEntity
  8
0
 62
     1
100
AcDbLine
 10
502.6578809671255
 20
376.4803825511316
 30
0.0
 11
504.8624011414088
 21
362.5615899616183
 31
0.0
  0
LINE
  5
900F
330
8FA3
100
AcDbEntity
  8
0
 62
     1
100
AcDbLine
 10
506.5986343295062
 20
377.1692579264399
 30
0.0
 11
508.8524011414087
 21
362.939534304065
 31
0.0
  0
LINE
  5
9010
330
8FA3
100
AcDbEntity
  8
0
100
AcDbLine
 10
504.8624011414089
 20
358.3594705992558
 30
0.0
 11
501.3474011414086
 21
358.3594705992559
 31
0.0
  0
LINE
  5
9011
330
8FA3
100
AcDbEntity
  8
0
 62
     1
100
AcDbLine
 10
501.3474011414086
 20
362.939534304065
 30
0.0
 11
501.3474011414086
 21
345.7603032325902
 31
0.0
  0
LINE
  5
9012
330
8FA3
100
AcDbEntity
  8
M01
100
AcDbLine
 10
498.8474011414085
 20
388.3459687483064
 30
0.0
 11
494.8574011414087
 21
388.3459687483064
 31
0.0
  0
LINE
  5
9013
330
8FA3
100
AcDbEntity
  8
M01
100
AcDbLine
 10
500.3574011414087
 20
406.3459687483065
 30
0.0
 11
500.3574011414087
 21
416.3459687483066
 31
0.0
  0
LINE
  5
9014
330
8FA3
100
AcDbEntity
  8
M01
100
AcDbLine
 10
498.8474011414085
 20
388.3459687483064
 30
0.0
 11
499.8574011414087
 21
398.2707119326385
 31
0.0
  0
LINE
  5
9015
330
8FA3
100
AcDbEntity
  8
M01
100
AcDbLine
 10
493.3574011414085
 20
406.3459687483061
 30
0.0
 11
493.3574011414085
 21
416.3459687483062
 31
0.0
  0
LINE
  5
9016
330
8FA3
100
AcDbEntity
  8
M01
100
AcDbLine
 10
494.8574011414088
 20
388.3459687483064
 30
0.0
 11
493.8574011414083
 21
398.270711932639
 31
0.0
  0
LINE
  5
9017
330
8FA3
100
AcDbEntity
  8
M01
100
AcDbLine
 10
493.8574011414083
 20
398.270711932639
 30
0.0
 11
493.8574011414084
 21
406.3459687483064
 31
0.0
  0
LINE
  5
9018
330
8FA3
100
AcDbEntity
  8
M01
100
AcDbLine
 10
499.8574011414087
 20
398.2707119326385
 30
0.0
 11
499.8574011414085
 21
406.3459687483064
 31
0.0
  0
LINE
  5
9019
330
8FA3
100
AcDbEntity
  8
M01
100
AcDbLine
 10
493.8574011414083
 20
398.270711932639
 30
0.0
 11
499.8574011414087
 21
398.2707119326385
 31
0.0
  0
LINE
  5
901A
330
8FA3
100
AcDbEntity
  8
M01
100
AcDbLine
 10
500.3574011414087
 20
406.3459687483065
 30
0.0
 11
493.3574011414085
 21
406.3459687483061
 31
0.0
  0
LINE
  5
901B
330
8FA3
100
AcDbEntity
  8
0
 62
     1
100
AcDbLine
 10
497.3574011414087
 20
362.5615899616181
 30
0.0
 11
497.3574011414087
 21
345.7595751428521
 31
0.0
  0
LINE
  5
901C
330
8FA3
100
AcDbEntity
  8
M01
100
AcDbLine
 10
494.3574011414088
 20
441.3666433246354
 30
0.0
 11
494.3574011414086
 21
416.3459687483062
 31
0.0
  0
LINE
  5
901D
330
8FA3
100
AcDbEntity
  8
M01
100
AcDbLine
 10
499.3574011414088
 20
442.706389286791
 30
0.0
 11
499.3574011414088
 21
416.3459687483065
 31
0.0
  0
HATCH
  5
901E
330
8FA3
100
AcDbEntity
  8
M01
100
AcDbHatch
 10
0.0
 20
0.0
 30
0.0
210
0.0
220
0.0
230
1.0
  2
ANSI31
 70
     0
 71
     0
 91
        2
 92
        7
 72
     0
 73
     1
 93
        4
 10
496.8574011414087
 20
442.0365163057132
 10
494.3574011414088
 20
441.3666433246354
 10
494.3574011414086
 20
416.3459687483062
 10
496.8574011414086
 20
416.3459687483063
 97
        0
 92
        7
 72
     0
 73
     1
 93
        4
 10
499.3574011414088
 20
442.706389286791
 10
496.8574011414087
 20
442.0365163057132
 10
496.8574011414086
 20
416.3459687483063
 10
499.3574011414088
 20
416.3459687483065
 97
        0
 75
     0
 76
     1
 52
0.0
 41
10.0
 77
     0
 78
     1
 53
45.0
 43
425.7598255086946
 44
409.2077421121928
 45
-0.8838834764831842
 46
0.8838834764831844
 79
     0
 47
0.1095052059876858
 98
        2
 10
494.8432243532518
 20
437.7532346411641
 10
497.5828962647486
 20
438.1912570152818
  0
HATCH
  5
901F
330
8FA3
100
AcDbEntity
  8
M01
100
AcDbHatch
 10
0.0
 20
0.0
 30
0.0
210
0.0
220
0.0
230
1.0
  2
ANSI31
 70
     0
 71
     0
 91
        2
 92
        7
 72
     0
 73
     1
 93
        4
 10
496.8574011414087
 20
442.0365163057132
 10
494.3574011414088
 20
441.3666433246354
 10
494.3574011414086
 20
416.3459687483062
 10
496.8574011414086
 20
416.3459687483063
 97
        0
 92
        7
 72
     0
 73
     1
 93
        4
 10
499.3574011414088
 20
442.706389286791
 10
496.8574011414087
 20
442.0365163057132
 10
496.8574011414086
 20
416.3459687483063
 10
499.3574011414088
 20
416.3459687483065
 97
        0
 75
     0
 76
     1
 52
90.0
 41
10.0
 77
     0
 78
     1
 53
135.0
 43
425.7598255086946
 44
409.2077421121928
 45
-0.8838834764831844
 46
-0.8838834764831842
 79
     0
 47
0.1095052059876858
 98
        2
 10
495.391159955382
 20
434.4680795629679
 10
497.8020723353459
 20
434.6870897709737
  0
LINE
  5
9020
330
8FA3
100
AcDbEntity
  8
0
 62
     1
100
AcDbLine
 10
493.3574011414085
 20
416.3459687483062
 30
0.0
 11
500.3574011414087
 21
416.3459687483066
 31
0.0
  0
LINE
  5
9021
330
8FA3
100
AcDbEntity
  8
0
 62
     1
100
AcDbLine
 10
498.8474011414085
 20
388.3459687483064
 30
0.0
 11
498.8474011414089
 21
380.2979472272436
 31
0.0
  0
LINE
  5
9022
330
8FA3
100
AcDbEntity
  8
0
 62
     1
100
AcDbLine
 10
494.8574011414088
 20
388.3459687483064
 30
0.0
 11
494.8574011414088
 21
380.2348097120966
 31
0.0
  0
LINE
  5
9023
330
8FA3
100
AcDbEntity
  8
0
 62
     1
100
AcDbLine
 10
495.1528809671255
 20
376.480382551131
 30
0.0
 11
497.3574011414087
 21
362.5615899616183
 31
0.0
  0
LINE
  5
9024
330
8FA3
100
AcDbEntity
  8
0
 62
     1
100
AcDbLine
 10
499.0936343295061
 20
377.1692579264395
 30
0.0
 11
501.3474011414086
 21
362.939534304065
 31
0.0
  0
LINE
  5
9025
330
8FA3
100
AcDbEntity
  8
0
100
AcDbLine
 10
497.3574011414087
 20
358.3594705992559
 30
0.0
 11
482.3574011414083
 21
358.3594705992559
 31
0.0
  0
ARC
  5
9026
330
8FA3
100
AcDbEntity
  8
0
 62
     1
100
AcDbCircle
 10
526.352401141409
 20
380.2979472272446
 30
0.0
 40
20.0
100
AcDbArc
 50
180.0000000000015
 51
189.0
  0
ARC
  5
9027
330
8FA3
100
AcDbEntity
  8
0
 62
     1
100
AcDbCircle
 10
518.8474011414089
 20
380.2979472272442
 30
0.0
 40
20.0
100
AcDbArc
 50
180.0000000000015
 51
189.0
  0
ARC
  5
9028
330
8FA3
100
AcDbEntity
  8
0
 62
     1
100
AcDbCircle
 10
526.3624011414087
 20
380.2348097120971
 30
0.0
 40
24.0
100
AcDbArc
 50
179.9999999999996
 51
188.9999999999999
  0
ARC
  5
9029
330
8FA3
100
AcDbEntity
  8
0
 62
     1
100
AcDbCircle
 10
518.8574011414088
 20
380.2348097120965
 30
0.0
 40
24.0
100
AcDbArc
 50
179.9999999999996
 51
188.9999999999999
  0
LINE
  5
902A
330
8FA3
100
AcDbEntity
  8
0
 62
     1
100
AcDbLine
 10
508.8524011414086
 20
350.3594705992558
 30
0.0
 11
509.3574011414087
 21
350.3594705992558
 31
0.0
  0
LINE
  5
902B
330
8FA3
100
AcDbEntity
  8
0
 62
     1
100
AcDbLine
 10
508.8524011414087
 20
354.3594705992559
 30
0.0
 11
509.3574011414087
 21
354.3594705992559
 31
0.0
  0
LINE
  5
902C
330
8FA3
100
AcDbEntity
  8
0
 62
     1
100
AcDbLine
 10
501.3474011414086
 20
350.3594705992558
 30
0.0
 11
504.8624011414087
 21
350.3594705992558
 31
0.0
  0
LINE
  5
902D
330
8FA3
100
AcDbEntity
  8
0
 62
     1
100
AcDbLine
 10
501.3474011414086
 20
354.3594705992559
 30
0.0
 11
504.8624011414088
 21
354.3594705992559
 31
0.0
  0
CIRCLE
  5
902E
330
8FA3
100
AcDbEntity
  8
0
100
AcDbCircle
 10
612.4059522081331
 20
318.3594705992559
 30
0.0
 40
2.5
  0
MTEXT
  5
902F
330
8FA3
100
AcDbEntity
  8
0
100
AcDbMText
 10
498.2049503638641
 20
246.3910134259803
 30
0.0
 40
4.0
 41
107.4
 71
     1
 72
     5
  1
{\LHB-4812FC-C for PSB1500}
 73
     1
 44
1.0
  0
ENDBLK
  5
9031
330
8FA3
100
AcDbEntity
  8
0
 62
     1
100
AcDbBlockEnd
  0
ENDSEC
  0
SECTION
  2
ENTITIES
  0
ACAD_PROXY_ENTITY
  5
6FE3
330
17
100
AcDbEntity
  8
TEXT
100
AcDbProxyEntity
 90
      498
 91
      505
 95
   589845
 70
     0
 92
        8
310
0800000000000000
 93
     1035
310
8A10DE4DA5DB889400F0467D0C67A56900C8DD91A59589CCBF2843BAA8038CD2102A2843BAA8038CD21020000000000000000000000000000000041E64640081209205A7126080F907EF7D5F09FD76BB57FB9FFFFFFFFFFBE7EF7D5F09FD76BB57E000000000001C07FB1FFFFFFFFFFBF7E585C7126080F907E00000000000
310
1C17F2
340
0
360
0
 94
        0
  0
LINE
  5
858D
330
17
100
AcDbEntity
  8
CENTRE
100
AcDbLine
 10
544.3574011414088
 20
318.3594705992558
 30
0.0
 11
454.3574011414087
 21
318.3594705992558
 31
0.0
  0
LINE
  5
8595
330
17
100
AcDbEntity
  8
M01
100
AcDbLine
 10
497.3524011414086
 20
491.2597341853275
 30
0.0
 11
493.3624011414088
 21
491.2597341853275
 31
0.0
  0
LINE
  5
8596
330
17
100
AcDbEntity
  8
M01
100
AcDbLine
 10
498.8624011414088
 20
519.2597341853277
 30
0.0
 11
491.8624011414086
 21
519.2597341853272
 31
0.0
  0
LINE
  5
8597
330
17
100
AcDbEntity
  8
M01
100
AcDbLine
 10
498.8624011414088
 20
509.2597341853276
 30
0.0
 11
498.8624011414088
 21
519.2597341853277
 31
0.0
  0
LINE
  5
8598
330
17
100
AcDbEntity
  8
M01
100
AcDbLine
 10
497.3524011414086
 20
491.2597341853275
 30
0.0
 11
498.3624011414088
 21
501.1844773696596
 31
0.0
  0
LINE
  5
8599
330
17
100
AcDbEntity
  8
M01
100
AcDbLine
 10
491.8624011414086
 20
509.2597341853273
 30
0.0
 11
491.8624011414086
 21
519.2597341853272
 31
0.0
  0
LINE
  5
859A
330
17
100
AcDbEntity
  8
M01
100
AcDbLine
 10
493.3624011414089
 20
491.2597341853275
 30
0.0
 11
492.3624011414084
 21
501.1844773696601
 31
0.0
  0
LINE
  5
859B
330
17
100
AcDbEntity
  8
M01
100
AcDbLine
 10
492.3624011414084
 20
501.1844773696601
 30
0.0
 11
492.3624011414085
 21
509.2597341853275
 31
0.0
  0
LINE
  5
859C
330
17
100
AcDbEntity
  8
M01
100
AcDbLine
 10
498.3624011414088
 20
501.1844773696596
 30
0.0
 11
498.3624011414086
 21
509.2597341853275
 31
0.0
  0
LINE
  5
859D
330
17
100
AcDbEntity
  8
M01
100
AcDbLine
 10
492.3624011414084
 20
501.1844773696601
 30
0.0
 11
498.3624011414088
 21
501.1844773696596
 31
0.0
  0
LINE
  5
859E
330
17
100
AcDbEntity
  8
M01
100
AcDbLine
 10
498.8624011414088
 20
509.2597341853276
 30
0.0
 11
491.8624011414086
 21
509.2597341853273
 31
0.0
  0
LINE
  5
859F
330
17
100
AcDbEntity
  8
CENTRE
 48
0.7
100
AcDbLine
 10
499.3574011414088
 20
273.3594705992558
 30
0.0
 11
499.3574011414087
 21
554.5999854914762
 31
0.0
  0
LINE
  5
85B3
330
17
100
AcDbEntity
  8
M01
100
AcDbLine
 10
497.612401141409
 20
519.2597341853277
 30
0.0
 11
497.6124011414091
 21
519.3158866122437
 31
0.0
  0
LINE
  5
85D7
330
17
100
AcDbEntity
  8
M01
100
AcDbLine
 10
493.357401141409
 20
491.2597341853275
 30
0.0
 11
493.3574011414092
 21
390.2091951048436
 31
0.0
  0
LINE
  5
85D8
330
17
100
AcDbEntity
  8
M01
100
AcDbLine
 10
497.3474011414089
 20
491.2597341853275
 30
0.0
 11
497.3474011414094
 21
390.6766583469999
 31
0.0
  0
LINE
  5
8C4D
330
17
100
AcDbEntity
  8
M01
100
AcDbLine
 10
492.8624011414089
 20
544.2804087616565
 30
0.0
 11
492.8624011414087
 21
519.2597341853273
 31
0.0
  0
LINE
  5
8C4E
330
17
100
AcDbEntity
  8
M01
100
AcDbLine
 10
497.8624011414089
 20
545.6201547238122
 30
0.0
 11
497.8624011414089
 21
519.2597341853277
 31
0.0
  0
HATCH
  5
8C4F
330
17
100
AcDbEntity
  8
M01
100
AcDbHatch
 10
0.0
 20
0.0
 30
0.0
210
0.0
220
0.0
230
1.0
  2
ANSI31
 70
     0
 71
     0
 91
        2
 92
        7
 72
     0
 73
     1
 93
        4
 10
495.3624011414088
 20
544.9502817427344
 10
492.8624011414089
 20
544.2804087616566
 10
492.8624011414087
 20
519.2597341853273
 10
495.3624011414087
 20
519.2597341853274
 97
        0
 92
        7
 72
     0
 73
     1
 93
        4
 10
497.8624011414089
 20
545.6201547238122
 10
495.3624011414088
 20
544.9502817427344
 10
495.3624011414087
 20
519.2597341853274
 10
497.8624011414089
 20
519.2597341853277
 97
        0
 75
     0
 76
     1
 52
0.0
 41
10.0
 77
     0
 78
     1
 53
45.0
 43
424.2648255086947
 44
512.1215075492139
 45
-0.8838834764831842
 46
0.8838834764831844
 79
     0
 47
0.1095052059876858
 98
        2
 10
493.348224353252
 20
540.6670000781852
 10
496.0878962647488
 20
541.105022452303
  0
HATCH
  5
8C50
330
17
100
AcDbEntity
  8
M01
100
AcDbHatch
 10
0.0
 20
0.0
 30
0.0
210
0.0
220
0.0
230
1.0
  2
ANSI31
 70
     0
 71
     0
 91
        2
 92
        7
 72
     0
 73
     1
 93
        4
 10
495.3624011414088
 20
544.9502817427344
 10
492.8624011414089
 20
544.2804087616566
 10
492.8624011414087
 20
519.2597341853273
 10
495.3624011414087
 20
519.2597341853274
 97
        0
 92
        7
 72
     0
 73
     1
 93
        4
 10
497.8624011414089
 20
545.6201547238122
 10
495.3624011414088
 20
544.9502817427344
 10
495.3624011414087
 20
519.2597341853274
 10
497.8624011414089
 20
519.2597341853277
 97
        0
 75
     0
 76
     1
 52
90.0
 41
10.0
 77
     0
 78
     1
 53
135.0
 43
424.2648255086947
 44
512.1215075492139
 45
-0.8838834764831844
 46
-0.8838834764831842
 79
     0
 47
0.1095052059876858
 98
        2
 10
493.8961599553821
 20
537.3818449999892
 10
496.307072335346
 20
537.600855207995
  0
LINE
  5
9033
330
17
100
AcDbEntity
  8
CENTRE
 48
0.7
100
AcDbLine
 10
602.8795691702281
 20
318.3594705992558
 30
0.0
 11
611.3795691702281
 21
318.3594705992558
 31
0.0
  0
LINE
  5
9034
330
17
100
AcDbEntity
  8
M01
100
AcDbLine
 10
610.7909205930769
 20
397.9561560915045
 30
0.0
 11
606.8009205930771
 21
397.9561560915045
 31
0.0
  0
LINE
  5
9035
330
17
100
AcDbEntity
  8
M01
100
AcDbLine
 10
612.3009205930771
 20
425.9561560915048
 30
0.0
 11
605.3009205930769
 21
425.9561560915043
 31
0.0
  0
LINE
  5
9036
330
17
100
AcDbEntity
  8
M01
100
AcDbLine
 10
612.3009205930771
 20
415.9561560915046
 30
0.0
 11
612.3009205930771
 21
425.9561560915048
 31
0.0
  0
LINE
  5
9037
330
17
100
AcDbEntity
  8
M01
100
AcDbLine
 10
610.7909205930769
 20
397.9561560915045
 30
0.0
 11
611.8009205930771
 21
407.8808992758366
 31
0.0
  0
LINE
  5
9038
330
17
100
AcDbEntity
  8
M01
100
AcDbLine
 10
605.3009205930769
 20
415.9561560915043
 30
0.0
 11
605.3009205930769
 21
425.9561560915043
 31
0.0
  0
LINE
  5
9039
330
17
100
AcDbEntity
  8
M01
100
AcDbLine
 10
606.8009205930771
 20
397.9561560915045
 30
0.0
 11
605.8009205930767
 21
407.8808992758372
 31
0.0
  0
LINE
  5
903A
330
17
100
AcDbEntity
  8
M01
100
AcDbLine
 10
605.8009205930767
 20
407.8808992758372
 30
0.0
 11
605.8009205930769
 21
415.9561560915046
 31
0.0
  0
LINE
  5
903B
330
17
100
AcDbEntity
  8
M01
100
AcDbLine
 10
611.8009205930771
 20
407.8808992758366
 30
0.0
 11
611.800920593077
 21
415.9561560915046
 31
0.0
  0
LINE
  5
903C
330
17
100
AcDbEntity
  8
M01
100
AcDbLine
 10
605.8009205930767
 20
407.8808992758372
 30
0.0
 11
611.8009205930771
 21
407.8808992758366
 31
0.0
  0
LINE
  5
903D
330
17
100
AcDbEntity
  8
M01
100
AcDbLine
 10
612.3009205930771
 20
415.9561560915046
 30
0.0
 11
605.3009205930769
 21
415.9561560915043
 31
0.0
  0
LINE
  5
903E
330
17
100
AcDbEntity
  8
CENTRE
 48
0.7
100
AcDbLine
 10
608.8009205930769
 20
387.630864373927
 30
0.0
 11
608.8009205930772
 21
460.7064509078268
 31
0.0
  0
LINE
  5
903F
330
17
100
AcDbEntity
  8
M01
100
AcDbLine
 10
611.0509205930774
 20
425.9561560915046
 30
0.0
 11
611.0509205930774
 21
426.0123085184208
 31
0.0
  0
LINE
  5
9040
330
17
100
AcDbEntity
  8
M01
100
AcDbLine
 10
606.8009205930771
 20
397.9561560915045
 30
0.0
 11
606.8009205930771
 21
386.9089697049387
 31
0.0
  0
LINE
  5
9041
330
17
100
AcDbEntity
  8
M01
100
AcDbLine
 10
610.7909205930769
 20
397.9561560915045
 30
0.0
 11
610.7909205930774
 21
386.8812712602166
 31
0.0
  0
LINE
  5
9044
330
17
100
AcDbEntity
  8
M01
100
AcDbLine
 10
611.644569170228
 20
349.3594705992558
 30
0.0
 11
609.9045691702277
 21
349.3594705992558
 31
0.0
  0
LINE
  5
9045
330
17
100
AcDbEntity
  8
M01
100
AcDbLine
 10
611.3795691702281
 20
287.3594705992558
 30
0.0
 11
609.6395691702278
 21
287.3594705992558
 31
0.0
  0
LINE
  5
9046
330
17
100
AcDbEntity
  8
M01
100
AcDbLine
 10
607.1395691702281
 20
349.3594705992559
 30
0.0
 11
607.1395691702281
 21
287.3594705992559
 31
0.0
  0
LINE
  5
9047
330
17
100
AcDbEntity
  8
M01
100
AcDbLine
 10
609.6395691702281
 20
287.3594705992559
 30
0.0
 11
599.1145691702285
 21
287.3594705992558
 31
0.0
  0
LINE
  5
9048
330
17
100
AcDbEntity
  8
M01
100
AcDbLine
 10
609.9045691702279
 20
349.3594705992558
 30
0.0
 11
599.3795691702278
 21
349.3594705992558
 31
0.0
  0
LINE
  5
9049
330
17
100
AcDbEntity
  8
M01
100
AcDbLine
 10
599.3795691702278
 20
364.2294705992557
 30
0.0
 11
599.3795691702278
 21
349.3594705992558
 31
0.0
  0
LINE
  5
904A
330
17
100
AcDbEntity
  8
M04
100
AcDbLine
 10
603.3045691702279
 20
451.6862200544552
 30
0.0
 11
603.3045691702279
 21
379.3889655358679
 31
0.0
  0
LINE
  5
904B
330
17
100
AcDbEntity
  8
M01
100
AcDbLine
 10
604.5680104098709
 20
365.4450654359976
 30
0.0
 11
609.3647911055058
 21
378.7314019307043
 31
0.0
  0
LINE
  5
904C
330
17
100
AcDbEntity
  8
M01
100
AcDbLine
 10
600.8056986577993
 20
366.8033769909154
 30
0.0
 11
605.6124793534343
 21
380.1174119303458
 31
0.0
  0
LINE
  5
904F
330
17
100
AcDbEntity
  8
0
100
AcDbLine
 10
595.3343028159289
 20
285.4894705992558
 30
0.0
 11
595.3343028159289
 21
287.3594705992558
 31
0.0
  0
LINE
  5
9050
330
17
100
AcDbEntity
  8
M01
100
AcDbLine
 10
606.3009205930772
 20
450.9768306678335
 30
0.0
 11
606.3009205930769
 21
425.9561560915043
 31
0.0
  0
LINE
  5
9051
330
17
100
AcDbEntity
  8
M01
100
AcDbLine
 10
611.3009205930771
 20
452.3165766299891
 30
0.0
 11
611.3009205930771
 21
425.9561560915048
 31
0.0
  0
HATCH
  5
9052
330
17
100
AcDbEntity
  8
M01
100
AcDbHatch
 10
0.0
 20
0.0
 30
0.0
210
0.0
220
0.0
230
1.0
  2
ANSI31
 70
     0
 71
     0
 91
        2
 92
        7
 72
     0
 73
     1
 93
        4
 10
608.8009205930772
 20
451.6467036489114
 10
606.3009205930772
 20
450.9768306678336
 10
606.3009205930769
 20
425.9561560915043
 10
608.8009205930769
 20
425.9561560915045
 97
        0
 92
        7
 72
     0
 73
     1
 93
        4
 10
611.3009205930771
 20
452.3165766299891
 10
608.8009205930772
 20
451.6467036489114
 10
608.8009205930769
 20
425.9561560915045
 10
611.3009205930771
 20
425.9561560915048
 97
        0
 75
     0
 76
     1
 52
0.0
 41
10.0
 77
     0
 78
     1
 53
45.0
 43
537.7033449603628
 44
418.817929455391
 45
-0.8838834764831842
 46
0.8838834764831844
 79
     0
 47
0.1095052059876858
 98
        2
 10
606.7867438049203
 20
447.3634219843622
 10
609.526415716417
 20
447.8014443584799
  0
HATCH
  5
9053
330
17
100
AcDbEntity
  8
M01
100
AcDbHatch
 10
0.0
 20
0.0
 30
0.0
210
0.0
220
0.0
230
1.0
  2
ANSI31
 70
     0
 71
     0
 91
        2
 92
        7
 72
     0
 73
     1
 93
        4
 10
608.8009205930772
 20
451.6467036489114
 10
606.3009205930772
 20
450.9768306678336
 10
606.3009205930769
 20
425.9561560915043
 10
608.8009205930769
 20
425.9561560915045
 97
        0
 92
        7
 72
     0
 73
     1
 93
        4
 10
611.3009205930771
 20
452.3165766299891
 10
608.8009205930772
 20
451.6467036489114
 10
608.8009205930769
 20
425.9561560915045
 10
611.3009205930771
 20
425.9561560915048
 97
        0
 75
     0
 76
     1
 52
90.0
 41
10.0
 77
     0
 78
     1
 53
135.0
 43
537.7033449603628
 44
418.817929455391
 45
-0.8838834764831844
 46
-0.8838834764831842
 79
     0
 47
0.1095052059876858
 98
        2
 10
607.3346794070504
 20
444.0782669061661
 10
609.7455917870144
 20
444.2972771141719
  0
ARC
  5
9054
330
17
100
AcDbEntity
  8
M01
100
AcDbCircle
 10
623.3795691702281
 20
358.6535076614048
 30
0.0
 40
20.0
100
AcDbArc
 50
160.1488411351232
 51
163.8115125427532
  0
ARC
  5
9055
330
17
100
AcDbEntity
  8
M01
100
AcDbCircle
 10
623.3795691702279
 20
358.6535076614041
 30
0.0
 40
24.0
100
AcDbArc
 50
160.1488411351232
 51
166.5656071099229
  0
LINE
  5
906F
330
17
100
AcDbEntity
  8
0
100
AcDbLine
 10
598.3343028159289
 20
279.7394705992558
 30
0.0
 11
612.1395691702279
 21
279.7394705992558
 31
0.0
  0
LINE
  5
9070
330
17
100
AcDbEntity
  8
0
100
AcDbLine
 10
595.3343028159289
 20
285.4894705992558
 30
0.0
 11
595.3343028159289
 21
282.7394705992558
 31
0.0
  0
ARC
  5
9071
330
17
100
AcDbEntity
  8
0
100
AcDbCircle
 10
598.3343028159289
 20
282.7394705992558
 30
0.0
 40
3.0
100
AcDbArc
 50
180.0
 51
270.0
  0
LINE
  5
9072
330
17
100
AcDbEntity
  8
M01
100
AcDbLine
 10
607.3795691702281
 20
351.5594705992559
 30
0.0
 11
607.3795691702281
 21
349.3594705992558
 31
0.0
  0
LINE
  5
9073
330
17
100
AcDbEntity
  8
M01
100
AcDbLine
 10
611.3795691702281
 20
352.5594705992559
 30
0.0
 11
611.3795691702281
 21
349.3594705992558
 31
0.0
  0
LINE
  5
9074
330
17
100
AcDbEntity
  8
M01
100
AcDbLine
 10
611.3795691702281
 20
351.5594705992558
 30
0.0
 11
599.3795691702277
 21
351.5594705992559
 31
0.0
  0
LINE
  5
9075
330
17
100
AcDbEntity
  8
M01
100
AcDbLine
 10
611.3795691702281
 20
352.5594705992558
 30
0.0
 11
599.3795691702277
 21
352.5594705992559
 31
0.0
  0
LINE
  5
9076
330
17
100
AcDbEntity
  8
M01
100
AcDbLine
 10
603.3795691702281
 20
351.5594705992558
 30
0.0
 11
603.3795691702281
 21
349.3594705992559
 31
0.0
  0
LINE
  5
9077
330
17
100
AcDbEntity
  8
M01
100
AcDbLine
 10
611.1145691702285
 20
285.1594705992559
 30
0.0
 11
599.114569170228
 21
285.1594705992558
 31
0.0
  0
LINE
  5
9078
330
17
100
AcDbEntity
  8
M01
100
AcDbLine
 10
611.1145691702285
 20
284.1594705992559
 30
0.0
 11
599.114569170228
 21
284.1594705992558
 31
0.0
  0
LINE
  5
9079
330
17
100
AcDbEntity
  8
M01
100
AcDbLine
 10
603.1145691702285
 20
285.1594705992559
 30
0.0
 11
603.1145691702285
 21
287.3594705992558
 31
0.0
  0
LINE
  5
907A
330
17
100
AcDbEntity
  8
M01
100
AcDbLine
 10
607.1145691702285
 20
285.1594705992559
 30
0.0
 11
607.1145691702285
 21
287.3594705992558
 31
0.0
  0
LINE
  5
907B
330
17
100
AcDbEntity
  8
M01
100
AcDbLine
 10
611.1145691702285
 20
284.159470599256
 30
0.0
 11
611.1145691702285
 21
287.3594705992558
 31
0.0
  0
LINE
  5
907C
330
17
100
AcDbEntity
  8
M01
100
AcDbLine
 10
599.1145691702285
 20
284.1594705992558
 30
0.0
 11
599.1145691702285
 21
287.3594705992558
 31
0.0
  0
LINE
  5
907D
330
17
100
AcDbEntity
  8
0
100
AcDbLine
 10
598.5993028159287
 20
356.9794705992559
 30
0.0
 11
599.3795691702278
 21
356.9794705992561
 31
0.0
  0
LINE
  5
907E
330
17
100
AcDbEntity
  8
0
100
AcDbLine
 10
595.5993028159288
 20
349.3594705992558
 30
0.0
 11
595.5993028159288
 21
365.3594705992559
 31
0.0
  0
ARC
  5
907F
330
17
100
AcDbEntity
  8
0
100
AcDbCircle
 10
598.5993028159287
 20
353.979470599256
 30
0.0
 40
3.0
100
AcDbArc
 50
90.0
 51
180.0
  0
LINE
  5
9080
330
17
100
AcDbEntity
  8
0
100
AcDbLine
 10
611.3795691702281
 20
356.9794705992558
 30
0.0
 11
612.4045691702278
 21
356.9794705992559
 31
0.0
  0
LINE
  5
9081
330
17
100
AcDbEntity
  8
0
100
AcDbLine
 10
598.5993028159287
 20
368.3594705992559
 30
0.0
 11
601.3674968467931
 21
368.3594705992559
 31
0.0
  0
ARC
  5
9082
330
17
100
AcDbEntity
  8
0
100
AcDbCircle
 10
598.5993028159287
 20
365.3594705992559
 30
0.0
 40
3.0
100
AcDbArc
 50
90.0
 51
180.0
  0
LINE
  5
9083
330
17
100
AcDbEntity
  8
0
100
AcDbLine
 10
605.6202013153131
 20
368.3594705992558
 30
0.0
 11
612.404569170228
 21
368.3594705992559
 31
0.0
  0
LINE
  5
9084
330
17
100
AcDbEntity
  8
0
 62
     1
100
AcDbLine
 10
611.3795691702283
 20
364.2294705992558
 30
0.0
 11
599.3795691702278
 21
364.2294705992557
 31
0.0
  0
LINE
  5
9085
330
17
100
AcDbEntity
  8
0
 62
     1
100
AcDbLine
 10
611.3795691702281
 20
352.5594705992559
 30
0.0
 11
611.3795691702281
 21
364.2294705992558
 31
0.0
  0
CIRCLE
  5
9086
330
17
100
AcDbEntity
  8
0
 62
     1
100
AcDbCircle
 10
605.3795691702281
 20
359.2294705992558
 30
0.0
 40
4.5
  0
CIRCLE
  5
9087
330
17
100
AcDbEntity
  8
0
 62
     1
100
AcDbCircle
 10
605.3795691702281
 20
359.2294705992558
 30
0.0
 40
2.0
  0
CIRCLE
  5
90BD
330
17
100
AcDbEntity
  8
0
100
AcDbCircle
 10
607.1295691702281
 20
318.3594705992558
 30
0.0
 40
2.5
  0
LINE
  5
90C2
330
17
100
AcDbEntity
  8
M01
 62
     0
100
AcDbLine
 10
474.3574011414088
 20
349.5844605912478
 30
0.0
 11
474.3574011414088
 21
363.3594705992558
 31
0.0
  0
LINE
  5
90C4
330
17
100
AcDbEntity
  8
M01
 62
     0
100
AcDbLine
 10
524.3574011414088
 20
363.3594705992559
 30
0.0
 11
524.3574011414088
 21
349.5844605912478
 31
0.0
  0
ARC
  5
90C7
330
17
100
AcDbEntity
  8
M01
 62
     0
100
AcDbCircle
 10
499.3574011414088
 20
318.3594705992558
 30
0.0
 40
40.0
100
AcDbArc
 50
128.6821874534894
 51
51.31781254651057
  0
LINE
  5
90C9
330
17
100
AcDbEntity
  8
M04
100
AcDbLine
 10
509.357401141409
 20
554.5999854914763
 30
0.0
 11
509.3574011414084
 21
368.3594705992558
 31
0.0
  0
LINE
  5
90CA
330
17
100
AcDbEntity
  8
M04
100
AcDbLine
 10
489.3574011414091
 20
554.5999854914763
 30
0.0
 11
489.3574011414083
 21
368.3594705992558
 31
0.0
  0
CIRCLE
  5
90CC
330
17
100
AcDbEntity
  8
M01
100
AcDbCircle
 10
499.3574011414088
 20
318.3594705992558
 30
0.0
 40
33.2
  0
ARC
  5
90CD
330
17
100
AcDbEntity
  8
M01
100
AcDbCircle
 10
499.3574011414088
 20
318.3594705992558
 30
0.0
 40
34.2
100
AcDbArc
 50
108.7619784620337
 51
71.23802153796643
  0
LINE
  5
9103
330
17
100
AcDbEntity
  8
0
100
AcDbLine
 10
519.3574011414088
 20
368.3594705992559
 30
0.0
 11
508.8524011414087
 21
368.3594705992558
 31
0.0
  0
LINE
  5
9104
330
17
100
AcDbEntity
  8
0
 62
     1
100
AcDbLine
 10
510.3574011414088
 20
350.7421820360704
 30
0.0
 11
510.3574011414088
 21
364.0864705992557
 31
0.0
  0
LINE
  5
9105
330
17
100
AcDbEntity
  8
0
 62
     1
100
AcDbLine
 10
510.3574011414088
 20
364.0864705992557
 30
0.0
 11
509.3574011414087
 21
364.0864705992557
 31
0.0
  0
LINE
  5
9106
330
17
100
AcDbEntity
  8
0
 62
     1
100
AcDbLine
 10
509.3574011414087
 20
364.0864705992557
 30
0.0
 11
509.3574011414087
 21
350.0176448991108
 31
0.0
  0
LINE
  5
9107
330
17
100
AcDbEntity
  8
0
 62
     1
100
AcDbLine
 10
489.3574011414087
 20
350.0176448991108
 30
0.0
 11
489.3574011414087
 21
364.0864705992557
 31
0.0
  0
LINE
  5
9108
330
17
100
AcDbEntity
  8
0
 62
     1
100
AcDbLine
 10
489.3574011414087
 20
364.0864705992557
 30
0.0
 11
488.3574011414087
 21
364.0864705992557
 31
0.0
  0
LINE
  5
9109
330
17
100
AcDbEntity
  8
0
 62
     1
100
AcDbLine
 10
488.3574011414087
 20
364.0864705992557
 30
0.0
 11
488.3574011414087
 21
350.7421820360704
 31
0.0
  0
LINE
  5
910A
330
17
100
AcDbEntity
  8
0
 62
     1
100
AcDbLine
 10
513.3574011414087
 20
354.0864705992557
 30
0.0
 11
513.3574011414087
 21
364.0864705992557
 31
0.0
  0
LINE
  5
910B
330
17
100
AcDbEntity
  8
0
 62
     1
100
AcDbLine
 10
510.3574011414088
 20
364.0864705992557
 30
0.0
 11
513.3574011414087
 21
364.0864705992557
 31
0.0
  0
LINE
  5
910C
330
17
100
AcDbEntity
  8
0
 62
     1
100
AcDbLine
 10
510.3574011414088
 20
354.0864705992557
 30
0.0
 11
513.3574011414087
 21
354.0864705992557
 31
0.0
  0
LINE
  5
910D
330
17
100
AcDbEntity
  8
0
 62
     1
100
AcDbLine
 10
489.3574011414087
 20
361.0864705992558
 30
0.0
 11
497.3574011414087
 21
361.0864705992558
 31
0.0
  0
LINE
  5
910E
330
17
100
AcDbEntity
  8
0
 62
     1
100
AcDbLine
 10
489.3574011414087
 20
357.0864705992558
 30
0.0
 11
497.3574011414087
 21
357.0864705992558
 31
0.0
  0
LINE
  5
910F
330
17
100
AcDbEntity
  8
0
 62
     1
100
AcDbLine
 10
513.3574011414087
 20
361.0864705992558
 30
0.0
 11
516.3574011414088
 21
361.0864705992558
 31
0.0
  0
LINE
  5
9110
330
17
100
AcDbEntity
  8
0
 62
     1
100
AcDbLine
 10
516.3574011414088
 20
361.0864705992558
 30
0.0
 11
516.3574011414088
 21
357.0864705992558
 31
0.0
  0
LINE
  5
9111
330
17
100
AcDbEntity
  8
0
 62
     1
100
AcDbLine
 10
516.3574011414088
 20
357.0864705992558
 30
0.0
 11
513.3574011414087
 21
357.0864705992558
 31
0.0
  0
LINE
  5
9112
330
17
100
AcDbEntity
  8
0
 62
     1
100
AcDbLine
 10
488.3574011414087
 20
362.5864705992558
 30
0.0
 11
484.3574011414087
 21
362.5864705992558
 31
0.0
  0
LINE
  5
9113
330
17
100
AcDbEntity
  8
0
 62
     1
100
AcDbLine
 10
484.3574011414087
 20
362.5864705992558
 30
0.0
 11
484.3574011414087
 21
355.5864705992557
 31
0.0
  0
LINE
  5
9114
330
17
100
AcDbEntity
  8
0
 62
     1
100
AcDbLine
 10
484.3574011414087
 20
355.5864705992557
 30
0.0
 11
488.3574011414087
 21
355.5864705992557
 31
0.0
  0
LINE
  5
9115
330
17
100
AcDbEntity
  8
M01
100
AcDbLine
 10
506.3524011414086
 20
395.0729687483062
 30
0.0
 11
502.3624011414089
 21
395.0729687483062
 31
0.0
  0
LINE
  5
9116
330
17
100
AcDbEntity
  8
M01
100
AcDbLine
 10
507.8624011414088
 20
413.0729687483064
 30
0.0
 11
507.8624011414088
 21
423.0729687483065
 31
0.0
  0
LINE
  5
9117
330
17
100
AcDbEntity
  8
M01
100
AcDbLine
 10
506.3524011414086
 20
395.0729687483062
 30
0.0
 11
507.3624011414088
 21
404.9977119326383
 31
0.0
  0
LINE
  5
9118
330
17
100
AcDbEntity
  8
M01
100
AcDbLine
 10
500.8624011414086
 20
413.072968748306
 30
0.0
 11
500.8624011414086
 21
423.072968748306
 31
0.0
  0
LINE
  5
9119
330
17
100
AcDbEntity
  8
M01
100
AcDbLine
 10
502.3624011414089
 20
395.0729687483062
 30
0.0
 11
501.3624011414084
 21
404.997711932639
 31
0.0
  0
LINE
  5
911A
330
17
100
AcDbEntity
  8
M01
100
AcDbLine
 10
501.3624011414084
 20
404.997711932639
 30
0.0
 11
501.3624011414086
 21
413.0729687483063
 31
0.0
  0
LINE
  5
911B
330
17
100
AcDbEntity
  8
M01
100
AcDbLine
 10
507.3624011414088
 20
404.9977119326383
 30
0.0
 11
507.3624011414087
 21
413.0729687483063
 31
0.0
  0
LINE
  5
911C
330
17
100
AcDbEntity
  8
M01
100
AcDbLine
 10
501.3624011414084
 20
404.997711932639
 30
0.0
 11
507.3624011414088
 21
404.9977119326383
 31
0.0
  0
LINE
  5
911D
330
17
100
AcDbEntity
  8
M01
100
AcDbLine
 10
507.8624011414088
 20
413.0729687483064
 30
0.0
 11
500.8624011414086
 21
413.072968748306
 31
0.0
  0
LINE
  5
911E
330
17
100
AcDbEntity
  8
0
 62
     1
100
AcDbLine
 10
508.8524011414088
 20
368.092500167571
 30
0.0
 11
508.8524011414084
 21
350.172753595514
 31
0.0
  0
LINE
  5
911F
330
17
100
AcDbEntity
  8
0
 62
     1
100
AcDbLine
 10
504.8624011414089
 20
367.7145558251258
 30
0.0
 11
504.8624011414089
 21
351.0998886631718
 31
0.0
  0
LINE
  5
9120
330
17
100
AcDbEntity
  8
M01
100
AcDbLine
 10
501.8624011414089
 20
448.0936433246353
 30
0.0
 11
501.8624011414089
 21
423.0729687483061
 31
0.0
  0
LINE
  5
9121
330
17
100
AcDbEntity
  8
M01
100
AcDbLine
 10
506.8624011414089
 20
449.433389286791
 30
0.0
 11
506.8624011414089
 21
423.0729687483065
 31
0.0
  0
HATCH
  5
9122
330
17
100
AcDbEntity
  8
M01
100
AcDbHatch
 10
0.0
 20
0.0
 30
0.0
210
0.0
220
0.0
230
1.0
  2
ANSI31
 70
     0
 71
     0
 91
        2
 92
        7
 72
     0
 73
     1
 93
        4
 10
504.3624011414088
 20
448.7635163057132
 10
501.8624011414089
 20
448.0936433246354
 10
501.8624011414089
 20
423.0729687483061
 10
504.3624011414088
 20
423.0729687483062
 97
        0
 92
        7
 72
     0
 73
     1
 93
        4
 10
506.8624011414089
 20
449.433389286791
 10
504.3624011414088
 20
448.7635163057132
 10
504.3624011414088
 20
423.0729687483062
 10
506.8624011414089
 20
423.0729687483065
 97
        0
 75
     0
 76
     1
 52
0.0
 41
10.0
 77
     0
 78
     1
 53
45.0
 43
433.2648255086947
 44
415.9347421121927
 45
-0.8838834764831842
 46
0.8838834764831844
 79
     0
 47
0.1095052059876858
 98
        2
 10
502.3482243532519
 20
444.480234641164
 10
505.0878962647487
 20
444.9182570152818
  0
HATCH
  5
9123
330
17
100
AcDbEntity
  8
M01
100
AcDbHatch
 10
0.0
 20
0.0
 30
0.0
210
0.0
220
0.0
230
1.0
  2
ANSI31
 70
     0
 71
     0
 91
        2
 92
        7
 72
     0
 73
     1
 93
        4
 10
504.3624011414088
 20
448.7635163057132
 10
501.8624011414089
 20
448.0936433246354
 10
501.8624011414089
 20
423.0729687483061
 10
504.3624011414088
 20
423.0729687483062
 97
        0
 92
        7
 72
     0
 73
     1
 93
        4
 10
506.8624011414089
 20
449.433389286791
 10
504.3624011414088
 20
448.7635163057132
 10
504.3624011414088
 20
423.0729687483062
 10
506.8624011414089
 20
423.0729687483065
 97
        0
 75
     0
 76
     1
 52
90.0
 41
10.0
 77
     0
 78
     1
 53
135.0
 43
433.2648255086947
 44
415.9347421121927
 45
-0.8838834764831844
 46
-0.8838834764831842
 79
     0
 47
0.1095052059876858
 98
        2
 10
502.8961599553821
 20
441.1950795629679
 10
505.3070723353461
 20
441.4140897709737
  0
LINE
  5
9124
330
17
100
AcDbEntity
  8
0
 62
     1
100
AcDbLine
 10
500.8624011414086
 20
423.072968748306
 30
0.0
 11
507.8624011414088
 21
423.0729687483065
 31
0.0
  0
LINE
  5
9125
330
17
100
AcDbEntity
  8
0
100
AcDbLine
 10
509.3574011414085
 20
368.3594705992558
 30
0.0
 11
509.3574011414085
 21
458.4132200544551
 31
0.0
  0
LINE
  5
9126
330
17
100
AcDbEntity
  8
0
100
AcDbLine
 10
489.3574011414085
 20
368.3594705992558
 30
0.0
 11
489.3574011414085
 21
458.4132200544551
 31
0.0
  0
LINE
  5
9127
330
17
100
AcDbEntity
  8
0
 62
     1
100
AcDbLine
 10
506.3524011414086
 20
395.0729687483062
 30
0.0
 11
506.3524011414091
 21
387.0249472272439
 31
0.0
  0
LINE
  5
9128
330
17
100
AcDbEntity
  8
0
 62
     1
100
AcDbLine
 10
502.3624011414089
 20
395.0729687483062
 30
0.0
 11
502.3624011414089
 21
386.9618097120972
 31
0.0
  0
LINE
  5
9129
330
17
100
AcDbEntity
  8
0
 62
     1
100
AcDbLine
 10
502.6578809671256
 20
383.2073825511315
 30
0.0
 11
504.6161679533116
 21
370.8432451259303
 31
0.0
  0
LINE
  5
912A
330
17
100
AcDbEntity
  8
0
 62
     1
100
AcDbLine
 10
506.5986343295064
 20
383.8962579264398
 30
0.0
 11
508.6061679533116
 21
371.2211894683758
 31
0.0
  0
LINE
  5
912B
330
17
100
AcDbEntity
  8
0
100
AcDbLine
 10
504.8624011414089
 20
368.3594705992558
 30
0.0
 11
501.3474011414086
 21
368.3594705992558
 31
0.0
  0
LINE
  5
912C
330
17
100
AcDbEntity
  8
0
 62
     1
100
AcDbLine
 10
501.3474011414086
 20
367.6539684984628
 30
0.0
 11
501.3474011414086
 21
351.4997768742437
 31
0.0
  0
LINE
  5
912D
330
17
100
AcDbEntity
  8
0
 62
     1
100
AcDbLine
 10
497.3574011414086
 20
367.1865052563049
 30
0.0
 11
497.3574011414087
 21
351.4991748827886
 31
0.0
  0
ARC
  5
912E
330
17
100
AcDbEntity
  8
0
 62
     1
100
AcDbCircle
 10
526.3524011414091
 20
387.0249472272445
 30
0.0
 40
20.0
100
AcDbArc
 50
180.0
 51
188.9999999999986
  0
ARC
  5
912F
330
17
100
AcDbEntity
  8
0
 62
     1
100
AcDbCircle
 10
526.3624011414089
 20
386.961809712097
 30
0.0
 40
24.0
100
AcDbArc
 50
180.0
 51
188.9999999999986
  0
LINE
  5
9130
330
17
100
AcDbEntity
  8
0
 62
     1
100
AcDbLine
 10
508.8524011414087
 20
357.0864705992558
 30
0.0
 11
509.3574011414087
 21
357.0864705992558
 31
0.0
  0
LINE
  5
9131
330
17
100
AcDbEntity
  8
0
 62
     1
100
AcDbLine
 10
508.8524011414087
 20
361.0864705992558
 30
0.0
 11
509.3574011414087
 21
361.0864705992558
 31
0.0
  0
LINE
  5
9132
330
17
100
AcDbEntity
  8
0
 62
     1
100
AcDbLine
 10
501.3474011414086
 20
357.0864705992558
 30
0.0
 11
504.8624011414089
 21
357.0864705992558
 31
0.0
  0
LINE
  5
9133
330
17
100
AcDbEntity
  8
0
 62
     1
100
AcDbLine
 10
501.3474011414086
 20
361.0864705992558
 30
0.0
 11
504.8624011414089
 21
361.0864705992558
 31
0.0
  0
LINE
  5
9135
330
17
100
AcDbEntity
  8
M01
100
AcDbLine
 10
496.9203531560848
 20
371.34473907266
 30
0.0
 11
493.794449126733
 21
386.0509612884887
 31
0.0
  0
LINE
  5
9136
330
17
100
AcDbEntity
  8
M01
100
AcDbLine
 10
500.9103531560848
 20
371.8122023148178
 30
0.0
 11
497.7844491267332
 21
386.5184245306449
 31
0.0
  0
ARC
  5
9137
330
17
100
AcDbEntity
  8
M01
100
AcDbCircle
 10
477.3574011414086
 20
367.1865052563049
 30
0.0
 40
20.0
100
AcDbArc
 50
0.0
 51
11.99999999999963
  0
ARC
  5
9138
330
17
100
AcDbEntity
  8
0
 62
     1
100
AcDbCircle
 10
484.8624011414089
 20
367.7145558251258
 30
0.0
 40
20.0
100
AcDbArc
 50
0.0
 51
8.999999999999706
  0
ARC
  5
9139
330
17
100
AcDbEntity
  8
M01
100
AcDbCircle
 10
481.3474011414086
 20
367.6539684984628
 30
0.0
 40
20.0
100
AcDbArc
 50
0.0
 51
11.99999999999963
  0
ARC
  5
913A
330
17
100
AcDbEntity
  8
0
 62
     1
100
AcDbCircle
 10
488.8524011414089
 20
368.0925001675715
 30
0.0
 40
20.0
100
AcDbArc
 50
359.9999999999986
 51
8.999999999999046
  0
ARC
  5
913B
330
17
100
AcDbEntity
  8
M01
100
AcDbCircle
 10
513.3574011414092
 20
390.2091951048437
 30
0.0
 40
20.0
100
AcDbArc
 50
180.0000000000001
 51
191.9999999999994
  0
ARC
  5
913C
330
17
100
AcDbEntity
  8
M01
100
AcDbCircle
 10
517.3474011414093
 20
390.676658347
 30
0.0
 40
20.0
100
AcDbArc
 50
180.0000000000003
 51
191.9999999999997
  0
LINE
  5
913D
330
17
100
AcDbEntity
  8
M01
 62
     0
100
AcDbLine
 10
497.3574011414087
 20
368.3594705992558
 30
0.0
 11
479.3574011414087
 21
368.3594705992558
 31
0.0
  0
ARC
  5
913E
330
17
100
AcDbEntity
  8
M01
 62
     0
100
AcDbCircle
 10
479.3574011414087
 20
363.3594705992558
 30
0.0
 40
5.0
100
AcDbArc
 50
90.0
 51
180.0
  0
ARC
  5
913F
330
17
100
AcDbEntity
  8
M01
 62
     0
100
AcDbCircle
 10
519.3574011414088
 20
363.3594705992559
 30
0.0
 40
5.0
100
AcDbArc
 50
0.0
 51
90.0
  0
ARC
  5
9149
330
17
100
AcDbEntity
  8
M01
100
AcDbCircle
 10
586.8009205930771
 20
386.9089697049387
 30
0.0
 40
20.0
100
AcDbArc
 50
340.1488411351239
 51
0.0
  0
ARC
  5
914A
330
17
100
AcDbEntity
  8
M01
100
AcDbCircle
 10
586.7909205930774
 20
386.8812712602158
 30
0.0
 40
24.0
100
AcDbArc
 50
340.1488411351238
 51
0.0000000000018956
  0
HATCH
  5
9169
330
17
100
AcDbEntity
  8
M01
100
AcDbHatch
 10
0.0
 20
0.0
 30
0.0
210
0.0
220
0.0
230
1.0
  2
ANSI31
 70
     0
 71
     0
 91
        6
 92
        7
 72
     0
 73
     1
 93
        4
 10
603.3795691702281
 20
351.5594705992558
 10
599.3795691702278
 20
351.5594705992559
 10
599.3795691702278
 20
349.3594705992558
 10
603.3795691702281
 20
349.3594705992558
 97
        0
 92
        7
 72
     0
 73
     1
 93
        4
 10
607.3795691702281
 20
351.5594705992558
 10
603.3795691702281
 20
351.5594705992558
 10
603.3795691702281
 20
349.3594705992558
 10
607.3795691702281
 20
349.3594705992558
 97
        0
 92
        7
 72
     0
 73
     1
 93
        5
 10
611.3795691702281
 20
351.5594705992558
 10
607.3795691702281
 20
351.5594705992558
 10
607.3795691702281
 20
349.3594705992558
 10
609.9045691702279
 20
349.3594705992558
 10
611.3795691702281
 20
349.3594705992558
 97
        0
 92
        7
 72
     0
 73
     1
 93
        4
 10
603.1145691702285
 20
287.3594705992559
 10
599.1145691702285
 20
287.3594705992558
 10
599.1145691702285
 20
285.1594705992558
 10
603.1145691702285
 20
285.1594705992559
 97
        0
 92
        7
 72
     0
 73
     1
 93
        4
 10
607.1145691702285
 20
287.3594705992559
 10
603.1145691702285
 20
287.3594705992559
 10
603.1145691702285
 20
285.1594705992559
 10
607.1145691702285
 20
285.1594705992559
 97
        0
 92
        7
 72
     0
 73
     1
 93
        5
 10
611.1145691702285
 20
287.3594705992558
 10
609.6395691702278
 20
287.3594705992558
 10
607.1145691702285
 20
287.3594705992558
 10
607.1145691702285
 20
285.1594705992559
 10
611.1145691702285
 20
285.1594705992559
 97
        0
 75
     0
 76
     1
 52
90.0
 41
5.0
 77
     0
 78
     1
 53
135.0
 43
416.9541711483354
 44
412.0909294553905
 45
-0.4419417382415923
 46
-0.4419417382415922
 79
     0
 47
0.2181016616346231
 98
        6
 10
602.7381480290056
 20
350.1382533253678
 10
605.3573030067728
 20
350.356354432559
 10
608.6312475829535
 20
350.5744566395105
 10
600.9920458491231
 20
286.2344650540757
 10
604.4842519168315
 20
286.6706683682183
 10
608.6312475829535
 20
286.6706683682183
  0
MTEXT
  5
91B2
330
17
100
AcDbEntity
  8
M01
 62
     0
100
AcDbMText
 10
500.9690245019048
 20
249.0644643882908
 30
0.0
 40
4.0
 41
91.66999999999999
 71
     1
 72
     5
  1
{\LHB-6212FC-D for PSB2000}
 73
     1
 44
1.0
  0
ENDSEC
  0
SECTION
  2
OBJECTS
  0
DICTIONARY
  5
C
330
0
100
AcDbDictionary
281
     1
  3
ACAD_GROUP
350
D
  3
ACAD_LAYOUT
350
8ABF
  3
ACAD_MLINESTYLE
350
1A
  3
ACAD_PLOTSETTINGS
350
8AC0
  3
ACAD_PLOTSTYLENAME
350
8ABD
  3
ACAD_WIPEOUT_VARS
350
4846
  3
ACDBVARIABLEDICTIONARY
350
33
  3
CONTENTDICTIONARY
350
1149
  0
DICTIONARY
  5
20BE
330
17
100
AcDbDictionary
280
     1
281
     1
  3
ACAD_SORTENTS
360
20BF
  0
DICTIONARY
  5
D
102
{ACAD_REACTORS
330
C
102
}
330
C
100
AcDbDictionary
281
     1
  3
*A1
350
484B
  3
*A2
350
484E
  3
*A3
350
6B86
  3
*A4
350
8FA0
  3
*A5
350
8FA1
  3
*A6
350
8FA2
  0
DICTIONARY
  5
8ABF
102
{ACAD_REACTORS
330
C
102
}
330
C
100
AcDbDictionary
281
     1
  3
Layout1
350
8AC2
  3
Model
350
8AC1
  0
DICTIONARY
  5
1A
102
{ACAD_REACTORS
330
C
102
}
330
C
100
AcDbDictionary
281
     1
  3
STANDARD
350
1B
  0
DICTIONARY
  5
8AC0
102
{ACAD_REACTORS
330
C
102
}
330
C
100
AcDbDictionary
281
     1
  0
ACDBDICTIONARYWDFLT
  5
8ABD
102
{ACAD_REACTORS
330
C
102
}
330
C
100
AcDbDictionary
281
     1
  3
Normal
350
8ABE
100
AcDbDictionaryWithDefault
340
8ABE
  0
ACAD_PROXY_OBJECT
  5
4846
102
{ACAD_REACTORS
330
C
102
}
330
C
100
AcDbProxyObject
 90
      499
 91
      504
 95
   589845
 70
     0
 93
        2
310
A6
 94
        0
  0
DICTIONARY
  5
33
102
{ACAD_REACTORS
330
C
102
}
330
C
100
AcDbDictionary
281
     1
  3
DIMADEC
350
34
  3
DIMASSOC
350
8AC5
  3
SORTENTS
350
1D6E
  0
DICTIONARY
  5
1149
102
{ACAD_REACTORS
330
C
102
}
330
C
100
AcDbDictionary
281
     1
  0
SORTENTSTABLE
  5
20BF
102
{ACAD_REACTORS
330
20BE
102
}
330
20BE
100
AcDbSortentsTable
330
17
  0
GROUP
  5
484B
102
{ACAD_REACTORS
330
D
102
}
330
D
100
AcDbGroup
300
In use by TEXTMASK
 70
     1
 71
     1
  0
GROUP
  5
484E
102
{ACAD_REACTORS
330
D
102
}
330
D
100
AcDbGroup
300

 70
     1
 71
     1
  0
GROUP
  5
6B86
102
{ACAD_REACTORS
330
D
102
}
330
D
100
AcDbGroup
300

 70
     1
 71
     1
  0
GROUP
  5
8FA0
102
{ACAD_REACTORS
330
D
102
}
330
D
100
AcDbGroup
300
In use by TEXTMASK
 70
     1
 71
     1
  0
GROUP
  5
8FA1
102
{ACAD_REACTORS
330
D
102
}
330
D
100
AcDbGroup
300

 70
     1
 71
     1
  0
GROUP
  5
8FA2
102
{ACAD_REACTORS
330
D
102
}
330
D
100
AcDbGroup
300

 70
     1
 71
     1
  0
LAYOUT
  5
8AC2
102
{ACAD_REACTORS
330
8ABF
102
}
330
8ABF
100
AcDbPlotSettings
  1

  2
C:\PROGRAM FILES\AUTOCAD LT 2002\plotters\PublishToWeb DWF.pc3
  4

  6

 40
0.0
 41
0.0
 42
0.0
 43
0.0
 44
0.0
 45
0.0
 46
0.0
 47
0.0
 48
0.0
 49
0.0
140
0.0
141
0.0
142
1.0
143
1.0
 70
   688
 72
     0
 73
     0
 74
     5
  7

 75
    16
147
1.0
148
0.0
149
0.0
100
AcDbLayout
  1
Layout1
 70
     0
 71
     1
 10
0.0
 20
0.0
 11
12.0
 21
9.0
 12
0.0
 22
0.0
 32
0.0
 14
1.000000000000000E+20
 24
1.000000000000000E+20
 34
1.000000000000000E+20
 15
-1.000000000000000E+20
 25
-1.000000000000000E+20
 35
-1.000000000000000E+20
146
0.0
 13
0.0
 23
0.0
 33
0.0
 16
1.0
 26
0.0
 36
0.0
 17
0.0
 27
1.0
 37
0.0
 76
     0
330
14
  0
LAYOUT
  5
8AC1
102
{ACAD_REACTORS
330
8ABF
102
}
330
8ABF
100
AcDbPlotSettings
  1

  2
SHARP AR-C172M PCL5c
  4
A4
  6

 40
5.027083396911621
 41
5.027085304260253
 42
5.027084350585937
 43
5.027069091796875
 44
209.9733276367187
 45
296.9259948730469
 46
26.89
 47
0.0
 48
0.0
 49
0.0
140
0.0
141
0.0
142
1.0
143
1.081867903102654
 70
 11956
 72
     1
 73
     0
 74
     1
  7

 75
     0
147
0.9243272650312778
148
-454.3476442884975
149
-244.2436698449816
100
AcDbLayout
  1
Model
 70
     1
 71
     0
 10
0.0
 20
0.0
 11
12.0
 21
9.0
 12
0.0
 22
0.0
 32
0.0
 14
0.0
 24
0.0
 34
0.0
 15
0.0
 25
0.0
 35
0.0
146
0.0
 13
0.0
 23
0.0
 33
0.0
 16
1.0
 26
0.0
 36
0.0
 17
0.0
 27
1.0
 37
0.0
 76
     0
330
17
  0
MLINESTYLE
  5
1B
102
{ACAD_REACTORS
330
1A
102
}
330
1A
100
AcDbMlineStyle
  2
STANDARD
 70
     0
  3

 62
   256
 51
90.0
 52
90.0
 71
     2
 49
0.5
 62
   256
  6
BYLAYER
 49
-0.5
 62
   256
  6
BYLAYER
  0
ACDBPLACEHOLDER
  5
8ABE
102
{ACAD_REACTORS
330
8ABD
102
}
330
8ABD
  0
DICTIONARYVAR
  5
34
102
{ACAD_REACTORS
330
33
102
}
330
33
100
DictionaryVariables
280
     0
  1
3
  0
DICTIONARYVAR
  5
8AC5
102
{ACAD_REACTORS
330
33
102
}
330
33
100
DictionaryVariables
280
     0
  1
1
  0
DICTIONARYVAR
  5
1D6E
102
{ACAD_REACTORS
330
33
102
}
330
33
100
DictionaryVariables
280
     0
  1
127
  0
ENDSEC
  0
EOF
